Oops, an error
Loading. Please wait.

Arms Of A Woman Tab

version 2
version 2

Whole song

21,422 views 39 this week
no commentswrite comment
1 2 3 4 5
accurate
x 5
add to favorites
launch autoscroll
font size
0
reset
how to read this tab
guitar tuner
Tab Pro tools
  • play this tab
  • loop segment
  • change instrument
  • show fretboard
  • metronome
Autoscroll
slow
fast
+/-
esc
set tempo
stop
Contributor
Difficulty
novice
A new version with only some small corrections and I've added some chords to make the 
a little easier!
Have a good time with this fantastic song!
CB

   A                       D
e|-------0-----------0-----------0h2-----------0h2-----|
B|-------2-----------2---------3-----3-------3-----3---|
G|-----2---2-------2---2-----2---------2---2---------2-|
D|---2-------2---2-------2-0-------------0-------------|
A|-0-----------0---------------------------------------|
E|-----------------------------------------------------|

                                             I am at
   A                       E
e|-------0-----------0-----------------0---------------|
B|-------2-----------2-----------------0---------------|
G|-----2---2-------2---2---------1---1-----------------|
D|---2-------2---2-------2-----2---2-------------------|
A|-0-----------0-------------2-------------------------|
E|-------------------------0---------------------------|

   Ease in the arms of a woman                although
   A                       D
e|-------0-----------0-----------0h2-----------2-------|
B|-------2-----------2---------3-----3-------3---3-----|
G|-----2---2-------2---2-----2---------2---2-------2---|
D|---2-------2---2-------2-0-------------0-------------|
A|-0-----------0---------------------------------------|
E|-----------------------------------------------------|

   Now most of my days are spent alone
   A                       E
e|-------0-----------0-------------------0-------------|
B|-------2-----------2---------------0-----0-----------|
G|-----2---2-------2---2---------1h2---2-1---1---------|
D|---2-------2---2-------2-----2---------------2-------|
A|-0-----------0-------------2-------------------2-----|
E|-------------------------0-----------------------0---|

   A thousand miles to the place I was born
                           E
e|---------------------------------------0-------------|
B|-------0-----------0---------------0-----0-----------|
G|-2---2---2-------2---2---------1h2---2-1---1---------|
D|---2-------2---2-------2-----2---------------2-------|
A|---------------------------2-------------------------|
E|-2-----------2-----------0---------------------------|

   When she wakes me, she takes me back home
e|-------2-----------0-----------0-----------0---------|
B|-----3---3-------0---0-----------2---2-------1-------|
G|---2-------2---1-------1-----1-----1---1-------1-----|
D|-0-----------2-------------1-------------1-----------|
A|-------------------------0---------------------------|
E|-----------------------------------------------------|


Now most days I spend like a child
Who’s afraid of ghosts in the night
I know there ain’t nothin out there
I’m still afraid to turn on the light

I am at ease in the arms of a woman
Although now most of my days are spent alone
A thousand miles from the place I was born
But when she wakes me, she takes me back home

| /  slide up
| \  slide down
| h  hammer-on
| p  pull-off
| ~  vibrato
| +  harmonic
| x  Mute note
============================================================================
comments
print report bad tab
I want to post or [tab]
guest
You may want to rate the tab now too:
select rating
Please do not post tabs as comments. Select "correction" instead!