Oops, an error
Loading. Please wait.

Colors Tab

version 1
version 1

Intro

Whole song

15,988 views 51 this week
no commentswrite comment
1 2 3 4 5
excellent!
x 4
add to favorites
launch autoscroll
font size
0
reset
how to read this tab
guitar tuner
Tab Pro tools
  • play this tab
  • loop segment
  • change instrument
  • show fretboard
  • metronome
×
Best way to learn
"Colors"
Autoscroll
slow
fast
+/-
esc
set tempo
stop
Contributor
This isn't exacly how he plays it but it sounds all right. You'll figure out the pickingpattern.
Tabbed by J Petrusson


Intro:
e|----------------------------0-----------2h3---|
B|------------------------------0-0h3-----3-----|
G|-------0-2-2h4-2-0-2------------------2-------|
D|-----0---------------0h-2-2-----0---0---------|
A|----------------------------------------------|
E|---3-------3---------0------------------------|

Verse and outro:
e|---X---X---0---2---|
B|---3---3---1---3---|
G|---0---0---0---2---|
D|---0---2---2---0---|
A|---2---2---3---X---|
E|---3---0---X---X---|

Hammer on g note (first string, third fret) after each D chord.

Chorus:
e|---X---X---2---|
B|---1---3---3---|
G|---2---0---2---|
D|---2---0---0---|
A|---0---2---X---|
E|---X---3---X---|

Bridge:
e|---X---X---|
B|---3---2---|
G|---0---0---|
D|---2---2---|
A|---2---0---|
E|---0---X---|

Lyrics:
Yesterday I got lost in the circus 
Feeling like such a mess 
Now I'm down I'm just hanging on the corner 
I can't help but reminisce 
When you're gone all the colors fade 
When you're gone no New Year's Day parade 
You're gone 
Colors seem to fade 

Your mama called she said that you're downstairs crying 
Feeling like such a mess 
Yeah I hear you in the background bawling 
What happened to your sweet summertime dress 

I know we all, we all got our faults 
We get locked in our vaults and we stay 

But when you're gone all the colors fade 
When you're gone no New Year's Day parade 
You're gone 
Colors seem to fade 
Colors seem to fade 
comments
print report bad tab
I want to post or [tab]
guest
You may want to rate the tab now too:
select rating
Please do not post tabs as comments. Select "correction" instead!