Oops, an error
Loading. Please wait.

Keep It Loose Keep It Tight Tab

version 2
version 2

Intro

Whole song

2,432 views 1 this week
1 commentread comment
1 2 3 4 5
x 3
add to favorites
launch autoscroll
font size
0
reset
how to read this tab
guitar tuner
Autoscroll
slow
fast
+/-
esc
set tempo
stop
Help us to improve Ultimate-Guitar.com Take our survey!
×
Author
Difficulty
novice
I've seen a lot of complicated tabs for this but I'm pretty sure this way is a lot 
easier and sounds more like the actual intro.
I may post the rest later but it would be too similar to the other tabs.

STANDARD TUNING

e|-------0---------------0--------------0--------------0-----------------------|
B|-----------------------------------------------------------------------------|
G|-----------------------------------------------------------------------------|
D|----7----7----------9---9----------7---7----------9----9---------------------|
A|-----------------------------------------------------------------------------|
E|---5-------5-------7------7-------5------5-------7-------7-------------------|


e|-------0---------------0----------------------------------------------------|
B|----------------------------------------------------------------------------|
G|----------------------------------------------------------------------------|
D|----7----7----------9---9---------------------------------------------------|
A|----------------------------------------------------------------------------|
E|---5-------5-------7------7-----9----7----5---------------------------------|


Refer to other tabs for the rest of the song, this is just (what I think) is the easiest 
and most efficient way to play the intro.
Suggest correction
Give kudos to tab author, rate the tab!
1 2 3 4 5
comments
print report bad tab
1 comment total.
0 reply
m2shawning 10 Oct 03, 2015 03:40 PM

You're On To Something If You Do This Instead.
e|------0------
B|-------------
G|-------------
D|----7-----7-7
A|-------------
E|---5-5-----5-

e|------0------
B|-------------
G|-------------
D|----9-----9-9
A|-------------
E|---7-7-----7-

guest
You may want to rate the tab now too:
select rating
Wanna post a correction for this tab? Suggest correction