Oops, an error
Loading. Please wait.

Shout Out Loud Bass Tab

671 views 3 this week
no commentswrite comment
1 2 3 4 5
3 more votes to show rating
add to favorites
launch autoscroll
font size
0
reset
guitar tuner
Autoscroll
slow
fast
+/-
esc
set tempo
stop
Help us to improve Ultimate-Guitar.com Take our survey!
×
Author
This The Song Before And After The Part Starting At 2:11. I Havent Figured Out The Song 
2:11 And 2:36. So If You Figure It Out Let Me Know.

Verse x8
Come In With The Drums At About :13
G|----------------------------------------|
D|----------------------------------------|
A|---5-----0--2---------------------------|
E|----------------2----5--3------5--6--7--|

Chorus

G|----------------------------------------|
D|----------------------------------------|
A|---5--5----2--2---2---------------------|
E|--------------------2----2---3--3-------|

Have Fun With It Guys
Suggest correction
Give kudos to tab author, rate the tab!
1 2 3 4 5
comments
print report bad tab
guest
You may want to rate the tab now too:
select rating
Wanna post a correction for this tab? Suggest correction