Oops, an error
Loading. Please wait.

Soul Suckers Tab

version 1
version 1

Whole song

14,889 views 13 this week
no commentswrite comment
1 2 3 4 5
excellent!
x 6
add to favorites
launch autoscroll
font size
0
reset
how to read this tab
guitar tuner
Tab Pro tools
  • play this tab
  • loop segment
  • change instrument
  • show fretboard
  • metronome
×
Best way to learn
"Soul Suckers"
Autoscroll
slow
fast
+/-
esc
set tempo
stop
SOUL SUCKERS
AMOS LEE 
Tabbed by D. Hanks

INTRO

e|---------------0--------------1--------------------------------------------|
B|-----2^3--2------2---0-------------0--------0^1^0-----0--------------------|
G|-----2----2--------2-------2-----------------------0-----------------------|
D|---2---------------------0------0--------0---------------------------------|
A|-0-------------------------------------------------------------------------|
E|---------------------------------------3-----------------------------------|

e|---------------0--------------1--------------3-----------------------------|
B|-----2^3--2------2---0-------------0---------------------------------------|
G|-----2----2--------2-------2-----------------------------------------------|
D|---2---------------------0------0--------0---------------------------------|
A|-0-------------------------------------------------------------------------|
E|---------------------------------------3-----------------------------------|

VERSE:

e|---------------0--------------1--------------------------------------------|
B|-----2^3--2------2---0-------------0--------0^1^0-----0--------------------|
G|-----2----2--------2-------2-----------------------0-----------------------|
D|---2---------------------0------0--------0---------------------------------|
A|-0-------------------------------------------------------------------------|
E|---------------------------------------3-----------------------------------|

e|---------------0--------------1--------------3-------------------1---------|
B|-----2^3--2------2---0-------------0-------------------1---------1---------|
G|-----2----2--------2-------2-------------------------------------2---------|
D|---2---------------------0------0--------0-----------2-------0-------------|
A|-0------------------------------------------------0------------------------|
E|---------------------------------------3-------------------3---3-1---------|

e|-----1------------------3--------------------------------------------------|
B|-------1--------------3----------------------------------------------------|
G|---2----------------0------------------------------------------------------|
D|---------3--------0--------------------------------------------------------|
A|---------------------------------------------------------------------------|
E|-1-------------3-----------------------------------------------------------|

PARTIAL CHORUS:
("Nothing could be further from the truth, my love.")

e|----------1--------1-------------------------------------------------------|
B|--------1------------3--------2^3--2---------------------------------------|
G|------2---------2-------------2----2---------------------------------------|
D|--------------0-------------2----------------------------------------------|
A|--------------------------0------------------------------------------------|
E|--1------------------------------------------------------------------------|

VERSE 2 (same as 1)

FULL CHORUS:

e|----------1--------1-------------------------------------------------------|
B|--------1------------3--------2^3--2---------------------------------------|
G|------2---------2-------------2----2---------------------------------------|
D|--------------0-------------2----------------------------------------------|
A|--------------------------0------------------------------------------------|
E|--1------------------------------------------------------------------------|




("And nothing is more powerful than beauty in a wicked world")
e|----------1--------1------------------------1-------------------|
B|--------1------------3------------1---------1-------------------|
G|------2---------2---------------------------2-------------------|
D|--------------0----------------2-------0------------------------|
A|-----------------------------0----------------------------------|
E|--1----------------------------------3---3--1-------------------|




"Play it girl"     "Play it girl"       "Play it girl"
e|----------3-|--------------3---1----1----|---------------3--1------------------------|
B|--------3---|------2-------3---1------1--|------2--------3--1------------------------|
G|------0-----|------2-----0-----2--------2|------2------0----2------------------------|
D|----0-------|----2---2-------------------|----2---2----------------------------------|
A|------------|--0-------------------------|--0----------------------------------------|
E|-3----------|----------3-------1--1------|-----------3------1------------------------|

Verse 3 (same as 1)


(This part starts with "Disappear forever...")
e|---------------3---1-----1-----|
B|------2--------3---1-------1---|
G|------2------0-----2---------2-|  (x4)
D|----2---2----------------------|
A|--0----------------------------|
E|-----------3-------1--1--------|

Full Chorus again (w/o "play it girl" part) and your done!

Great song.

Questions, comments: Duff87i@aol.com
comments
print report bad tab
I want to post or [tab]
guest
You may want to rate the tab now too:
select rating
Please do not post tabs as comments. Select "correction" instead!