Oops, an error
Loading. Please wait.

Soul Suckers Tab

version 2
version 2

Whole song

1,718 views 6 this week
1 commentread comment
1 2 3 4 5
please rate
add to favorites
launch autoscroll
font size
0
reset
how to read this tab
guitar tuner
Autoscroll
slow
fast
+/-
esc
set tempo
stop
Help us to improve Ultimate-Guitar.com Take our survey!
×
Author
Difficulty
intermediate
                            Amos Lee - Soul Suckers
                  Tabbed by D. Hanks --> Revised by L. Neufeld
==============================================================================

INTRO

e|---------------0--------------1--------------------------------------------|
B|-----2h3p2-------2---0-------------0--------0h1p0-----0--------------------|
G|-----2-------------2-------2-----------------------0-----------------------|
D|-------------------------0------0--------0---------------------------------|
A|-0-------------------------------------------------------------------------|
E|---------------------------------------3-----------------------------------|

e|---------------0--------------1--------------3-----------------------------|
B|-----2h3p2-------2---0-------------0---------------------------------------|
G|-----2-------------2-------2-----------------------------------------------|
D|---2---------------------0------0--------0---------------------------------|
A|-0-------------------------------------------------------------------------|
E|---------------------------------------3-----------------------------------|

VERSE 1:

e|------------------------------1--------------------------------------------|
B|-----2h3p2-------------------------0--------0h1p0-----0--------------------|
G|-----2---------------------2-----------------------0-----------------------|
D|---2---------------------0------0--------0---------------------------------|
A|-0-------------------------------------------------------------------------|
E|---------------------------------------3-----------------------------------|

e|---------------0--------------1--------------3-------------------1---------|
B|-----2h3p2-------2---0-------------0-------------------1---------1---------|
G|-----2-------------2-------2-------------------------------------2---------|
D|---2---------------------0------0--------0-----------2-------0-------------|
A|-0------------------------------------------------0------------------------|
E|---------------------------------------3-------------------3---3-1---------|

e|-----1------------------3--------------------------------------------------|
B|-------1--------------3----------------------------------------------------|
G|---2----------------0------------------------------------------------------|
D|---------3--------0--------------------------------------------------------|
A|---------------------------------------------------------------------------|
E|-1-------------3-----------------------------------------------------------|


("Nothing could be further from the truth, my love.")

e|----------1--------1-------------------------------------------------------|
B|--------1------------3--------2h3p2----------------------------------------|
G|------2---------2-------------2--------------------------------------------|
D|--------------0-------------2----------------------------------------------|
A|--------------------------0------------------------------------------------|
E|--1------------------------------------------------------------------------|

VERSE 2 (same as 1)


("And nothing is more powerful than beauty in a wicked world")
e|----------1--------1------------------------1-------------------|
B|--------1------------3------------1---------1-------------------|
G|------2---------2---------------------------2-------------------|
D|--------------0----------------2-------0------------------------|
A|-----------------------------0----------------------------------|
E|--1----------------------------------3---3--1-------------------|




"Play it girl"     "Play it girl"       "Play it girl"
e|----------3-|--------------3---1----1----|---------------3--1------------------------|
B|--------3---|------2-------3---1------1--|------2--------3--1------------------------|
G|------0-----|------2-----0-----2--------2|------2------0----2------------------------|
D|----0-------|----2---2-------------------|----2---2----------------------------------|
A|------------|--0-------------------------|--0----------------------------------------|
E|-3----------|----------3-------1--1------|-----------3------1------------------------|

Verse 3:

("does it make you feel good")
e|------------------------------1--------------------------------------------|
B|-----2h3p2-------------------------0--------0h1p0-----0--------------------|
G|-----2---------------------2-----------------------0-----------------------|
D|---2---------------------0------0--------0---------------------------------|
A|-0-------------------------------------------------------------------------|
E|---------------------------------------3-----------------------------------|

e|------------------------------1--------------3-------------------1---------|
B|-----2h3p2-------------------------0-------------------1---------1---------|
G|-----2---------------------2-------------------------------------2---------|
D|---2---------------------0------0--------0-----------2-------0-------------|
A|-0------------------------------------------------0------------------------|
E|---------------------------------------3-------------------3---3-1---------|

e|-----1---------------------------------------------------------------------|
B|-------1-------------------------------------------------------------------|
G|---2-----------------------------------------------------------------------|
D|---------3-----------------------------------------------------------------|
A|---------------------------------------------------------------------------|
E|-1-----------3-------------------------------------------------------------|


(This part starts with "Disappear forever...")
e|---------------3---1-----1-----|
B|------2--------3---1-------1---|
G|------2------0-----2---------2-|  (x4)
D|----2---2----------------------|
A|--0----------------------------|
E|-----------3-------1--1--------|


("Nothing could be further from the truth")
e|----------1--------1-------------------------------------------------------|
B|--------1------------3--------2^3--2---------------------------------------|
G|------2---------2-------------2----2---------------------------------------|
D|--------------0-------------2----------------------------------------------|
A|--------------------------0------------------------------------------------|
E|--1------------------------------------------------------------------------|


("Nothing is more powerful")
e|----------1--------1------------------------1-------------------|
B|--------1------------3------------1---------1-------------------|
G|------2---------2---------------------------2-------------------|
D|--------------0----------------2-------0------------------------|
A|-----------------------------0----------------------------------|
E|--1----------------------------------3---3--1-------------------|

Great song.
Suggest correction
Give kudos to tab author, rate the tab!
1 2 3 4 5
comments
print report bad tab
1 comment total.
0 reply
Neufy161 62 wrote on January 21 2010, 07:03 pm

put a CAPO on 1

guest
You may want to rate the tab now too:
select rating
Please do not post tabs as comments. Select "correction" instead!