Oops, an error
Loading. Please wait.

Stay With Me Tab

version 1
version 1

Whole song

2,102 views 1 this week
no commentswrite comment
1 2 3 4 5
x 3
add to favorites
launch autoscroll
font size
0
reset
how to read this tab
guitar tuner
Autoscroll
slow
fast
+/-
esc
set tempo
stop
Help us to improve Ultimate-Guitar.com Take our survey!
×
Difficulty
Capo
novice
3rd fret
this is my first time tabbing. This is based on his live performance and i think
it's 100% correct. I love amos lee and i hope you enjoy playing this song as much as i do!

capo 3rd fret
chords are actually just D Em7 and G
D 000232
Em7 022030
G 320030

so you can strum but this is how he finger picks when performing this song live



--------0--------------0----------------------------------0h2-------|
------3---3----------3-----3------------0----0---------3------3-----|
----2--------2-----0-------0----------0----0----0----2--------2-----|
--0------0--0----2-------2----2--4--5----4----2----0----------------|
--------------------------------------------------------------------|
--------------------------------------------------------------------|

--------2--------------2----------------------------------0h2-------|
------3---3----------3-----3------------0----0---------3------3-----|
----2--------2-----0-------0----------0----0----0----2--------2-----|
--0------0--0----2-------2----2--4--5----4----2----0----------------|
--------------------------------------------------------------------|
--------------------------------------------------------------------|

repeat this part for first 2 verses and chorus

bridge chords
F#m 244222
Em 022000
G 320030
A7 002020

F#m              Em
Oh and when the morning comes
          G
Just know darling,
            A7
I had to be moving on

final verse
finger pick the same way but the chords are now
D Am G D

then chorus again

enjoy!

---
WAYNE
Suggest correction
Give kudos to tab author, rate the tab!
1 2 3 4 5
comments
print report bad tab
guest
You may want to rate the tab now too:
select rating
Wanna post a correction for this tab? Suggest correction