Oops, an error
Loading. Please wait.

Supply And Demand Tab

14,427 views 6 this week
no commentswrite comment
1 2 3 4 5
worth learning
x 3
add to favorites
launch autoscroll
font size
0
reset
how to read this tab
guitar tuner
Autoscroll
slow
fast
+/-
esc
set tempo
stop
Help us to improve Ultimate-Guitar.com Take our survey!
×
Author
Capo
1st fret
By: Evan Prokup

Comments/suggestions appreciated.


CAPO 1

Intro (x2)

   G                     C   D

e----3------3------3----(3)-(3)-----------|
B------3------3------3--(3)-(3)-----------|
G--0------0------0-------0---X------------|
D--0------0------0-------X---0------------|
A--2------2------2-------3----------------|
E--3------3------3------------------------|


Verse (x2)

   G                     C            G     Bm  A   G

e----3------3------3-------3-----3------3-------------3---|
B------3------3------3------3-----3------3---3--3------3--|
G--0------0------0-------0-----0------0------0--0---0-----|
D--0------0------0-------X-----X------0------X--X---0-----|
A--2------2------2-------3-----3------2------2--0---2-----|
E--3------3------3--------------------3-------------3-----|


Chorus

  Em   G  Em   G   Bm   A   G   A   G

e--3---3---3---3----3---3---3---3---3--------|
B--3---3---3---3----3---3---3---3---3--------|
G--0---0---0---0----0---0---0---0---0--------|
D--2---0---2---0----X---X---0---X---0--------|
A--2---2---2---2----2---0---2---0---2--------|
E--0---3---0---3------------3-------3--------|


Play Intro x1 after Chorus


Bridge (x1)

   E   C   G   C   G   A  Bm   D   E   D   C   C   B   A   B   G

e--3---3---3---3---3---3---3---3---3---3---3---3---3---3---3---3-----|
B--3---3---3---3---3---3---3---3---3---3---3---3---3---3---3---3-----|
G--0---0---0---0---0---0---0---X---X---X---0---0---0---0---0---0-----|
D--2---2---0---2---0---X---X---0---2---0---X---X---X---X---X---0-----|
A--2---3---2---3---2---0---2---------------3---2---2---0---2---2-----|
E--0-------3-------3---------------------------------------3---------|

Intro

End on G

Life ain't only supply and demand.
Suggest correction
What's this?
You can suggest a correction to this tab. Community and Mods will review your correction and vote to approve or reject it.
comments
We did not receive enough feedback on this tab! Please rate:
print report bad tab
1 2 3 4 5
guest
You may want to rate the tab now too:
select rating
Please do not post tabs as comments. Select "correction" instead!