Oops, an error
Loading. Please wait.

Sweet Pea Bass Tab

5,447 views 3 this week
no commentswrite comment
1 2 3 4 5
excellent!
x 3
add to favorites
launch autoscroll
font size
0
reset
guitar tuner
Tab Pro tools
  • play this tab
  • loop segment
  • change instrument
  • show fretboard
  • metronome
×
Best way to learn
"Sweet Pea"
Autoscroll
slow
fast
+/-
esc
set tempo
stop
This song swings its eighth notes, so just listen
to get the timing. To distinguish between eighth
notes and triplets I changed all the dashes
while a triplet is played to '~' signs. Sorry
for the confusion.
a '~' means 'triplet'.

Sweet Pea
G----------------------------------|
D----------------------------------|
A------------------4-4-4-4---------|
E--0-0-0-0-4-4-4-4---------2-2-2-2-|

G----------------------------------|
D----------4-4-----2-2-----4-------|
A------4-4-----2-2-----4-4---432-2-|
E--0-0-----------------------------|

G----------------------------------|
D--2-2-2-2---------------------4-2-|
A------------------4-4-4-4---------|
E----------4-4-4-4---------2-2-----|

G----------------------------------|
D--2-2-------------2-2-----4-4-----|
A------4-4-9-/-2-2-----4-4-----2-2-|
E----------------------------------|

G----------------------------------|
D--2-2-2-2---------------2-4242----|
A------------4-----4-4-44----------|
E----------4---4-4---------------0-|

G----------------------------~~~----|
D--2-2-----4-4-----2-2-----4-~2~----|
A------4-4-----2-2-----4-4---2~42-2-|
E----------------------------~~~----|

G--------1-1-----------------------|
D------1-----4-1-1-----------2-1---|
A----2-------------4-----4-4-----4-|
E--4-----------------0-4-----------|

G----------1------------------------|
D--------2---4-2--2----9--------14--|
A--4-------------4-2----------------|
E----2-2--------------7-------------|

G--------------1--------------------|
D--2-2-2-2-------4---------4-4-4-2--|
A-----------------24-4--------4-4---|
E----------4-4---------4-4--------4-|

G--------------------4-------~654-4-|
D--2--------4-4--4-22-2----4-4~~----|
A------4--------2-2----4-4---~~~----|
E----------------------------~~~----|

G---------------------------------|
D--2-2-2-2-------21-----------4-4-|
A------------------4-4-4-4--------|
E----------4-4-4----------2-2-----|

G---------------------------~~~-----|
D--2-2-----4-4-----2-2----4-4~~-----|
A------4-4-----2-2----24-4--~~42-24-|
E---------------------------~4~-----|

G--------------------------------|
D--2-2-----4-4-----2---------1---|
A------4-4-----2-2-----2-2-2-----|
E--------------------4---------0-|


Comment if I goofed.
comments
We did not receive enough feedback on this tab! Please rate:
print report bad tab
1 2 3 4 5
I want to post or [tab]
guest
You may want to rate the tab now too:
select rating
Please do not post tabs as comments. Select "correction" instead!