Oops, an error
Loading. Please wait.

Sweet Pea Tab

19,761 views 27 this week
no commentswrite comment
1 2 3 4 5
x 5
add to favorites
launch autoscroll
font size
0
reset
how to read this tab
guitar tuner
Autoscroll
slow
fast
+/-
esc
set tempo
stop
Help us to improve Ultimate-Guitar.com Take our survey!
×
Difficulty
advanced
These are the chords for Sweet Pea as played by Amos Lee live, in this youtube clip.

http://www.youtube.com/watch?v=mzO1Whb9VGU


I made two minor changes that he doesnt do, but work better for my personal playing
 The Ab and the F#11 in the first line of the verse help to resolve hanging notes, and 
my
sounds a little better.  You can leave those chords out and just play straight through 
you want, I guess.  No promises that this is exact, because he tends to mute quite a
and its hard to get a real clear shot at each chord, but this is pretty darn close.


Verse

    E           AbAug7      Ab  C#m7          F#7sus    F#11

E|--0-----------|-0---------0-|-0-----------|-0----------0--|
B|--0-----------|-5---------4-|-0-----------|-0----------0--|
G|--1-----------|-5---------5-|-9-----------|-4----------3--|
D|--2-----------|-4---------x-|-9-----------|-4----------4--|
A|--2-----------|-x---------x-|-x-----------|-4----------4--|
E|--0-----------|-4---------4-|-9-----------|-2----------2--|


    E    C#m7     AM7   B11     E     C#m     A      B11

E|--0-----7-----|-4-----0-----|-0-----0-----|-0------0------|
B|--0-----5-----|-2-----2-----|-0-----5-----|-5------0------|
G|--1-----4-----|-2-----2-----|-1-----6-----|-6------2------|
D|--2-----6-----|-2-----1-----|-2-----6-----|-x------1------|
A|--2-----4-----|-0-----2-----|-2-----4-----|-x------2------|
E|--0-----x-----|-x-----0-----|-0-----x-----|-5------0------|


Bridge

    AbAug7        C#m           F#            B11

E|--0-----------|-0-----------|-2-----------|-0-------------|
B|--5-----------|-5-----------|-2-----------|-2-------------|
G|--5-----------|-6-----------|-3-----------|-2-------------|
D|--4-----------|-6-----------|-4-----------|-1-------------|
A|--x-----------|-4-----------|-4-----------|-2-------------|
E|--4-----------|-x-----------|-2-----------|-0-------------|
Suggest correction
comments
print report bad tab
guest
You may want to rate the tab now too:
select rating
Wanna post a correction for this tab? Suggest correction