Oops, an error
Loading. Please wait.

Wait Up For Me chords

version 2
version 2

Whole song

  • Typical Amos finger picking style, that deviates f... Show more
157 views 12 this week
no commentswrite comment
1 2 3 4 5
2 more votes to show rating
add to favorites
×
Save as Personal and add changes to this tab that will be seen only by you. Learn more ›
×
You can save this tab as Personal to edit and correct it or add notes. All changes will be seen only by you. Learn more »
launch autoscroll
font size
0
reset
transpose
0
reset
display chords
guitar tuner
edit
Autoscroll
slow
fast
+/-
esc
set tempo
stop
About this tab version
Typical Amos finger picking style, that deviates from time to time. I was going off the video I saw from The Prairie Home Companion. Was this info helpful? Yes No
Strumming
There is no strumming pattern for this song yet. and get +5 IQ
[Intro]

e|---0-0h3-3-0---0-----------0--------------------------------3--------------|
B|-3-----------3---0-----0-----0-----0-0h3--3-0-3---------0--------0---------|
G|---------------------0-----------0------------2-0-0---0--------0-----------|
D|-------------------2----2------2--------2-----------0-----0--0-----0-------|
A|-----2---------------------------------------------------------------------|
E|-3---------------0-------------------0----------3-3------------------------|

e|---0-0h3-3-0---0-----------0--------------------------------3--------------|
B|-3-----------3---0-----0-----0-----0-0h3--3-0-3---------0--------0---------|
G|---------------------0-----------0------------2-0-0---0--------0-----------|
D|-------------------2----2------2--------2-----------0-----0--0-----0-------|
A|-----2---------------------------------------------------------------------|
E|-3---------------0-------------------0----------3-3------------------------|


[Verse 1]

e|---0-0h3-3-0---0-----------0--------------------------------3--------------|
B|-3-----------3---0-----0-----0-----0-0h3--3-0-3---------0--------0---------|
G|---------------------0-----------0------------2-0-0---0--------0-----------|
D|-------------------2----2------2--------2-----------0-----0--0-----0-------|
A|-----2---------------------------------------------------------------------|
E|-3---------------0-------------------0----------3-3------------------------|

e|---0-0h3-3-0---0-----------0--------------------------------3--------------|
B|-3-----------3---0-----0-----0-----0-0h3--3-0-3---------0--------0---------|
G|---------------------0-----------0------------2-0-0---0--------0-----------|
D|-------------------2----2------2--------2-----------0-----0--0-----0-------|
A|-----2---------------------------------------------------------------------|
E|-3---------------0-------------------0----------3-3------------------------|

G                               Em                      D     G
When you cannot get to sleep at night, taunted by that new daylight
 G                                    Em                   D     G
When you just can't sleep before the morn, and you do not feel reborn

[Chorus]

e|------------------0-----------0-3-2-0---------0-----------------------0---------|
B|--1-0-3-0-----0-----0-----0---1-0-3-0-----0-----0-----0---0h1-----1-----1-----1-|
G|--0-0-2-0---0-----------0---------------0-----------0-----0-----0-----------0---|
D|----------2-----2-----2-----------0---2-----2-----2-----2-----2-----2-----2-----|
A|--3-2-0-----------------------3---------------------------3---------------------|
E|--------0-----------------------3---0-------------------------------------------|

e|-------------------------3-----------|
B|-1h3---3-0-----------0-----0-----0---|
G|-----------2-0-0---0-----------0-----|
D|-----2-----------0-----0-----0-------|
A|-3---------0-------------------------|
E|-------------3-3---------------------|

 C   G   D  Em     C   G   D  Em
Wait up for me,   Wait up for me
                C                         D    G
I'll be coming home, so you don't have to be alone

[Solo]

e|---0-0h3-3-0---0-----------0--------------------------------3--------------|
B|-3-----------3---0-----0-----0-----0-0h3--3-0-3---------0--------0---------|
G|---------------------0-----------0------------2-0-0---0--------0-----------|
D|-------------------2----2------2--------2-----------0-----0--0-----0-------|
A|-----2---------------------------------------------------------------------|
E|-3---------------0-------------------0----------3-3------------------------|

[Verse 2]

e|---0-0h3-3-0---0-----------0--------------------------------3--------------|
B|-3-----------3---0-----0-----0-----0-0h3--3-0-3---------0--------0---------|
G|---------------------0-----------0------------2-0-0---0--------0-----------|
D|-------------------2----2------2--------2-----------0-----0--0-----0-------|
A|-----2---------------------------------------------------------------------|
E|-3---------------0-------------------0----------3-3------------------------|

e|---0-0h3-3-0---0-----------0--------------------------------3--------------|
B|-3-----------3---0-----0-----0-----0-0h3--3-0-3---------0--------0---------|
G|---------------------0-----------0------------2-0-0---0--------0-----------|
D|-------------------2----2------2--------2-----------0-----0--0-----0-------|
A|-----2---------------------------------------------------------------------|
E|-3---------------0-------------------0----------3-3------------------------|

G                             Em                          D    G
When you're lost out in this world, and you feel you've come undone
G                          Em                        D     G
You ain't nobody's little girl, you ain't nobody's sacred son


[Chorus]

e|------------------0-----------0-3-2-0---------0-----------------------0---------|
B|--1-0-3-0-----0-----0-----0---1-0-3-0-----0-----0-----0---0h1-----1-----1-----1-|
G|--0-0-2-0---0-----------0---------------0-----------0-----0-----0-----------0---|
D|----------2-----2-----2-----------0---2-----2-----2-----2-----2-----2-----2-----|
A|--3-2-0-----------------------3---------------------------3---------------------|
E|--------0-----------------------3---0-------------------------------------------|

e|-------------------------3-----------|
B|-1h3---3-0-----------0-----0-----0---|
G|-----------2-0-0---0-----------0-----|
D|-----2-----------0-----0-----0-------|
A|-3---------0-------------------------|
E|-------------3-3---------------------|

C     G  D  Em     C   G   D  Em
Wait up for me,   Wait up for me
                C                          D    G
I'll be coming home,  so you don't have to be alone


[Bridge]
          C      G    D         G
Well I'm ragged too, just like you
             Em             D          G
I might not show it, but I feel it inside
          C      G    D        Em
Well I'm ragged too, lost and blue
C               D       G  
Feeling like a little child

[Solo]

e|---0-0h3-3-0---0-----------0--------------------------------3--------------|
B|-3-----------3---0-----0-----0-----0-0h3--3-0-3---------0--------0---------|
G|---------------------0-----------0------------2-0-0---0--------0-----------|
D|-------------------2----2------2--------2-----------0-----0--0-----0-------|
A|-----2---------------------------------------------------------------------|
E|-3---------------0-------------------0----------3-3------------------------|

e|---0-0h3-3-0---0-----------0--------------------------------3--------------|
B|-3-----------3---0-----0-----0-----0-0h3--3-0-3---------0--------0---------|
G|---------------------0-----------0------------2-0-0---0--------0-----------|
D|-------------------2----2------2--------2-----------0-----0--0-----0-------|
A|-----2---------------------------------------------------------------------|
E|-3---------------0-------------------0----------3-3------------------------|



[Verse 3] 

e|---0-0h3-3-0---0-----------0--------------------------------3--------------|
B|-3-----------3---0-----0-----0-----0-0h3--3-0-3---------0--------0---------|
G|---------------------0-----------0------------2-0-0---0--------0-----------|
D|-------------------2----2------2--------2-----------0-----0--0-----0-------|
A|-----2---------------------------------------------------------------------|
E|-3---------------0-------------------0----------3-3------------------------|

e|---0-0h3-3-0---0-----------0--------------------------------3--------------|
B|-3-----------3---0-----0-----0-----0-0h3--3-0-3---------0--------0---------|
G|---------------------0-----------0------------2-0-0---0--------0-----------|
D|-------------------2----2------2--------2-----------0-----0--0-----0-------|
A|-----2---------------------------------------------------------------------|
E|-3---------------0-------------------0----------3-3------------------------|

G                         Em                            D       G
Lately I've been thinking of all the losin' that I've done in love
G                               Em                      D        G
The wind she steals my sweet caress, please feel me in your emptiness


[Chorus]

e|------------------0-----------0-3-2-0---------0-----------------------0---------|
B|--1-0-3-0-----0-----0-----0---1-0-3-0-----0-----0-----0---0h1-----1-----1-----1-|
G|--0-0-2-0---0-----------0---------------0-----------0-----0-----0-----------0---|
D|----------2-----2-----2-----------0---2-----2-----2-----2-----2-----2-----2-----|
A|--3-2-0-----------------------3---------------------------3---------------------|
E|--------0-----------------------3---0-------------------------------------------|

e|-------------------------3-----------|
B|-1h3---3-0-----------0-----0-----0---|
G|-----------2-0-0---0-----------0-----|
D|-----2-----------0-----0-----0-------|
A|-3---------0-------------------------|
E|-------------3-3---------------------|

C    G   D  Em   C   G   D  Em
Wait up for me, Wait up for me
                C                          D    G
I'll be coming home,  so you don't have to be alone

C     G  D  Em   C    G  D  Em
Wait up for me, Wait up for me
                C                         D    G   
I'll be coming home, so you don't have to be alone


[Outro]

e|---0-0h3-3-0---0-----------0------------------------------|
B|-3-----------3---0-----0-----0-----0-0h3--3-0-3-----------|
G|---------------------0-----------0------------2-0-0-------|
D|-------------------2----2------2--------2-----------------|
A|-----2----------------------------------------------------|
E|-3---------------0-------------------0----------3-3-------|


            
            
Suggest correction
Creating personal tab
Creating personal tab
You can edit any tab online and save it as your Personal.

You can edit, replace or remove any tab part or add personal notes – all changes will be seen only by you.

Personal tabs can be accessed anytime from any device, even offline.
Learn more »
Give kudos to tab author, rate the tab!
1 2 3 4 5
comments
print report bad tab
guest
You may want to rate the tab now too:
select rating
Wanna post a correction for this tab? Suggest correction