Oops, an error
Loading. Please wait.

Mr Raindrop Tab

version 1
version 1

Whole song

Interactive

12,544 views 12 this week
no commentswrite comment
1 2 3 4 5
x 4
add to favorites
launch autoscroll
font size
0
reset
how to read this tab
guitar tuner
Autoscroll
slow
fast
+/-
esc
set tempo
stop
Help us to improve Ultimate-Guitar.com Take our survey!
×
Mr. Raindrop by Amplified
Tabs by TKDKurisu

My Youtube Channel:
http://www.youtube.com/user/TKDKurisu

My recording of this song on Youtube:
http://www.youtube.com/watch?v=uYbc4C_xaIU

Opening
---------------------------------------------------------------------------|
---------------------------------------------------------------------------|
---------------------------------------------------------------------------|
---------------------------------------------------------------------------|
----7------7--7------------------------------------------------------------|
-----------------------9------9--9------5------5--5----7------7--7---------|


Main Line ("Mr. Raindrop, fallin' away from me now")
---------------------------------------------------------------------------|
---------------------------------------------------------------------------|
---------------------------------------------------------------------------|
----9------9--9------------------------------------------------------------|
----7------7--7-----11----11--11------7-----7--7------9------9---9---------|
--------------------9------9---9------5-----5--5------7------7---7---------|

Verse ("Do you know how much you mean to me?")
------------------------------------------------|
------------------------------------------------|
------------------------------------------------|
------------------------------6----6----6--6----|
----6-----6-----6--6----------4----4----4--4----|
----4-----4-----4--4----------------------------|


------------------------------------------------|
------------------------------------------------|
------------------------------------------------|
----2-----2----2--2---------4----4----4--4------|
----0-----0----0--0---------2----2----2--2------|
------------------------------------------------|


------------------------------------------------|
------------------------------------------------|
------------------------------------------------|
------------------------------6----6----6--6----|
----6-----6-----6--6----------4----4----4--4----|
----4-----4-----4--4----------------------------|


----------------------------------------------|
----------------------------------------------|
----------------------------------------------|
----2-----2----2--2---------4----4----4----4--|
----0-----0----0--0---------2----2----2----2--|
----------------------------------------------|


-----------------------------|
-----------------------------|
-----------------------------|
---4--4--4---2--2---4--------|
---2--2--2---0--0---2--------|
-----------------------------|

Solo
-------------------------------------------------------------------------------------------------|
-------------------------------------------------------------------------------------------------|
-------------------------------------------------------------------------------------------------|
-----18---18---18---------14---14---14------16---14---16---14--------18----18-----16----14-------|
-------------------------------------------------------------------------------------------------|
-------------------------------------------------------------------------------------------------|


---------------------------------------------------------------------------------------------------|
---------------------------------------------------------------------------------------------------|
--------------------------------------------18----------------16-----------------------------------|
-----18---18---18---------14---14---14----------------------------------18-----18-------16-----14--|
---------------------------------------------------------------------------------------------------|
---------------------------------------------------------------------------------------------------|

---------------------------------------------------------------------------------------------------|
---------------------------------------------------------------------------------------------------|
---------------------------------------------------------------------------------------------------|
-----18---18---18---------14---14---14------16---14---16---14--------18----16-----14----16-----14--|
---------------------------------------------------------------------------------------------------|
---------------------------------------------------------------------------------------------------|

Ending
--------------------------------------------------------------------------|
--------------------------------------------------------------------------|
--------------------------------------------------------------------------|
----9------9--9-----------------------------------------------------------|
----7------7--7-----11----11--11------7------7--7--------10------9--------|
--------------------9-----9----9------5------5--5---------8------7--------|
Suggest correction
comments
print report bad tab
guest
You may want to rate the tab now too:
select rating
Wanna post a correction for this tab? Suggest correction