Oops, an error
Loading. Please wait.
We have Chord Pro version of This Is The Life.
It's the closest thing you can get to the original song and it has interactive parts. Check out the tab »
×
231,326 views 114 this week
4 commentsread comments
1 2 3 4 5
x 48
add to favorites
×
Save as Personal and add changes to this tab that will be seen only by you. Learn more ›
×
You can save this tab as Personal to edit and correct it or add notes. All changes will be seen only by you. Learn more »
launch autoscroll
font size
0
reset
how to read this tab
guitar tuner
edit
Autoscroll
slow
fast
+/-
esc
set tempo
stop
Author
Difficulty
[Solo]

This is a very simple but catchy solo from 'This is the Life'. It is played after each 
and at the end
It is repeated twice after the final verse. Listen to the track on   
 to get the rhythm right.

e|-----0-------0-----------0-------0-0-0-0-0-2-4-0-0-2-4-2-0-----------------|
B|-2-4---2-2-4---2-2-2-2-4---2-2-4---------------------------4---------------|
G|---------------------------------------------------------------------------|
D|---------------------------------------------------------------------------|
A|---------------------------------------------------------------------------|
E|---------------------------------------------------------------------------|

any errors please email me, therandomer1@aol.com

            
            
Suggest correction
Creating personal tab
Creating personal tab
You can edit any tab online and save it as your Personal.

You can edit, replace or remove any tab part or add personal notes – all changes will be seen only by you.

Personal tabs can be accessed anytime from any device, even offline.
Learn more »
comments
print report bad tab
4 comments total. Showing first comments.
-2 reply
-DeNnIs- 41 Sep 03, 2008 01:58 PM

E|-----0---------0-----------0---------0--0-0-0-0-2-4-0-0-2-4-2-0----|
B|-2-4---2-2-2-4---2-2-2-2-4---2-2-2-4----------------------------4--|
G|-------------------------------------------------------------------|
D|-------------------------------------------------------------------|
A|-------------------------------------------------------------------|
E|-------------------------------------------------------------------|

this sounds better

-2 reply
shenanigan 1,371 Sep 17, 2008 12:39 PM

the 0 on the high e string is not good. in solos, it's better not to use open strings...
but the melody is right :)

+13 reply
DrPhibes 10 Oct 03, 2008 04:14 AM

IF Capo on 4th fret

E|-------------------------------------------------------------------|
B|---0-1-------0-1---------0-1--------0-1--1-1-1-1-3-5-1-1-3-5-3-1-0-|
G|-2-----2-2-2-----2-2-2-2------2-2-2--------------------------------|
D|-------------------------------------------------------------------|
A|-------------------------------------------------------------------|
E|-------------------------------------------------------------------|

guest
You may want to rate the tab now too:
select rating
Wanna post a correction for this tab? Suggest correction