Oops, an error
Loading. Please wait.
We have Chord Pro version of This Is The Life.
It's the closest thing you can get to the original song and it has interactive parts. Check out the tab »
×
59,293 views 78 this week
1 commentread comment
1 2 3 4 5
x 12
add to favorites
×
Save as Personal and add changes to this tab that will be seen only by you. Learn more ›
×
You can save this tab as Personal to edit and correct it or add notes. All changes will be seen only by you. Learn more »
launch autoscroll
font size
0
reset
guitar tuner
edit
Autoscroll
slow
fast
+/-
esc
set tempo
stop
Author
Standard Tuning.
Listen to the song to work out the speed and stuff =]
There are guitar solos in the song, but i have put what you play as a verse, just follow 
order given, it flows throughout the song.

[Introduction & Verse:]

G|----6--4-----------------------------------------------|
D|----------4-------7--------------------6---6-----------|
A|-4-------------------------------7-7-9---6---6---4-----| x3
E|------------4-5-----5--5--0--0-----------------4-------|

[Chorus]

G|-------------------------------------------------------|
D|-------------------------------------------------------|
A|-4---4---------------7---7----11----11--7-6------------|
E|---4---4-4--5-0-5-0-0--7---7-7----11-------------------|

G|-------------------------------------------------------|
D|-------------------------------------------------------|
A|-4---4---------------7---7----11----11-----------------|
E|---4---4-4--5-0-5-0-0--7---7-7----11---11-11-----------|

[Verse 2]

G|----6--4-----------------------------------------------|
D|----------4-------7--------------------6---6-----------|
A|-4-------------------------------7-7-9---6---6---4-----| x3
E|------------4-5-----5--5--0--0-----------------4-------|

[Chorus]

G|-------------------------------------------------------|
D|-------------------------------------------------------|
A|-4---4---------------7---7----11----11--7-6------------|x6
E|---4---4-4--5-0-5-0-0--7---7-7----11-------------------|

Last chorus:

G|-------------------------------------------------------|
D|-------------------------------------------------------|
A|-4---4---------------7---7----11----11-----------------|
E|---4---4-4--5-0-5-0-0--7---7-7----11-------------------|

[Outro]

G|----6--4-----------------------------------------------|
D|----------4-------7--------------------6---6-----------|
A|-4-------------------------------7-7-9---6---6---4-----|
E|-------------4-5-----5--5--0--0----------------4-------|


Very simple=]
Enjoy=]

            
            
Suggest correction
Creating personal tab
Creating personal tab
You can edit any tab online and save it as your Personal.

You can edit, replace or remove any tab part or add personal notes – all changes will be seen only by you.

Personal tabs can be accessed anytime from any device, even offline.
Learn more »
comments
print report bad tab
1 comment total.
+2 reply
karl.chr 243 Mar 06, 2016 04:11 AM

I liked it. Maybe some misses. But worthy of a 5! gj
Great song!

guest
You may want to rate the tab now too:
select rating
Wanna post a correction for this tab? Suggest correction