Oops, an error
Loading. Please wait.

Pornstar Tab

225 views 1 this week
no commentswrite comment
1 2 3 4 5
excellent!
x 4
add to favorites
launch autoscroll
font size
0
reset
how to read this tab
guitar tuner
Tab Pro tools
  • play this tab
  • loop segment
  • change instrument
  • show fretboard
  • metronome
Autoscroll
slow
fast
+/-
esc
set tempo
stop
Contributor
Difficulty
Tuning
novice
D A D G B E
WTF I CANT BELIEVE NO BODY HAS TABBED THIS!!
AMY MEREDITH
PORNSTAR
DROP D

Introduction
GTR1
E|-/7~----5~------------------------------------------/7~---5~--------------------------|
B|---------------7~---------5~-----7~-----/3~--------------------7~-------5~---7~--/3~--|
G|--------------------------------------------------------------------------------------|
D|--------------------------------------------------------------------------------------|
A|--------------------------------------------------------------------------------------|
D|--------------------------------------------------------------------------------------|
||
GTR2 (Listen closely)
e|--------------------------------------------------|-----------------------------------|
B|--------------------------------------------------|-----------------------------------|
G|----------------7/11~---------------------11~/12~-|-----------------------------------|
D|--0-0---0-0---0-7/11~-----0-0---0-0---0-0-11~/12~-|--0----4----5\\------0----4----5\\-|
A|--0-0---0-0---0-5/9~~-----0-0---0-0---0-0-9~-/10~-|--0--0-4--4-5\\------0--0-4--4-5\\-|
E|--0-0---0-0---0-----------0-0---0-0---0-0---------|--0--0-4--4-5\\------0--0-4--4-5\\-|
                                                          *    *             *    *

(No guitar)
If you wanna wait, oh, Till I come down,
We can run away, oh, To the city.



Verse
"Here we Are"
GTR1
E|---2---0--------2---0--------2---0------------0--------|
B|---3---2--------2---3--------3---2------------3--------|
G|------------------------------------------2---2--------|
D|------------------------------------------0---0--------|
A|-------------------------------------------------------|
D|-------------------------------------------------------|
||
GTR2
E|-------------------------|
B|-------------------------|
G|-------------------------|
D|-------------------------|
A|-5-5-5-5-5-5-5-5-5-5-etc.|
D|-------------------------|
   * * * * * * * * * *


Pre-Chorus
"Look me in the eyes" (gradually get louder)
E|-------------------------------------------------------------------|
B|-------------------------------------------------------------------|
G|-------------------------------------------------------------------|
D|-------------------------------------------------------------------|
A|-----------------4-4-4-4-4-4-4-4-5-5-5-5-5-5-5-5-5-5-5-5-5---------|
D|-5-5-5-5-5-5-5-5---------------------------------------------------|



Chorus x2
GTR1
E|--10~-----------------------------10~-----------------------------|
B|--------10~---8~----7~------------------10~---8~----10~-----------|
G|--------------------------7~------------------------------7~------|
D|------------------------------------------------------------------|
A|------------------------------------------------------------------|
D|------------------------------------------------------------------|
||
GTR2
E|------------------------------------------------------------------|
B|------------------------------------------------------------------|
G|------------------------------------------------------------------|
D|--5-5-5-5-5-5-5-5-4-4-4-4-4-4-4-4-2-2-2-2-2-2-2-2-7-7-7-7-7-7-7-7-|
A|--5-5-5-5-5-5-5-5-4-4-4-4-4-4-4-4-2-2-2-2-2-2-2-2-7-7-7-7-7-7-7-7-|
D|--5-5-5-5-5-5-5-5-4-4-4-4-4-4-4-4-2-2-2-2-2-2-2-2-7-7-7-7-7-7-7-7-|..


GTR1
E|--10~-------------------------------------------------------------|
B|--------10~---8~----7~--------------5-7-8-7-5---5-7-8-7-5---5-7-8-|
G|--------------------------7~------7-----------7-----------7-------|
D|------------------------------------------------------------------|
A|------------------------------------------------------------------|
D|------------------------------------------------------------------|
||
GTR2
E|------------------------------------------------------------------|
B|------------------------------------------------------------------|
G|------------------------------------------------------------------|
D|--5-5-5-5-5-5-5-5-4-4-4-4-4-4-4-4-2-2-2-2-2-2-2-2-7-7-7-7-7-7-7-7-|
A|--5-5-5-5-5-5-5-5-4-4-4-4-4-4-4-4-2-2-2-2-2-2-2-2-7-7-7-7-7-7-7-7-|
D|--5-5-5-5-5-5-5-5-4-4-4-4-4-4-4-4-2-2-2-2-2-2-2-2-7-7-7-7-7-7-7-7-|




Post-Chorus
E|---------------------------------------|
B|---------------------------------------|
G|---------------------------------------|
D|--0----4----5\\---x-x-0----4----5\\----|
A|--0--0-4--4-5\\---x-x-0--0-4--4-5\\----|
D|--0--0-4--4-5\\---x-x-0--0-4--4-5\\----|
       *    *              *    *




         REPEAT VERSE, PRE-CHORUS
                     AND (CHORUS (x2))






Bridge
"Am I Losing My Mind"
GTR1
E|--7-7-7-7-5~~------------------------|
B|--------------7-7-7-7-5-5-5-5*brp3---|
G|-------------------------------------|
D|-------------------------------------| x2
A|-------------------------------------|
D|-------------------------------------|
* = artificial harmonic
GTR2
E|-------------------------------------|
B|-------------------------------------|
G|-------------------------------------|
D|-------------------------------------| x2
A|-------------------------------------|
D|--0-0-0-0-0-0-0-0-2-2-2-2-4-4-4-4----|


           REPEAT PRE-CHORUS


           REPEAT CHORUS UNTIL END
           (but GTR1 strums each long note
            3 times each on second repeat)



DONE. PLEASE RATE AND COMMENT
comments
print report bad tab
I want to post or [tab]
guest
You may want to rate the tab now too:
select rating
Please do not post tabs as comments. Select "correction" instead!