Oops, an error
Loading. Please wait.

One For Sorrow tab

19 views 1 this week
no commentswrite comment
1 2 3 4 5
3 more votes to show rating
add to favorites
×
Save as Personal and add changes to this tab that will be seen only by you. Learn more ›
×
You can save this tab as Personal to edit and correct it or add notes. All changes will be seen only by you. Learn more »
launch autoscroll
font size
0
reset
how to read this tab
guitar tuner
edit
Autoscroll
slow
fast
+/-
esc
set tempo
stop
Author
Difficulty
E|-----------------------------------|-----------------------------------|
B|------0-------0-------0-------0----|------0-------0-------0-------0----|
G|----0---0---0---0---0---0---0---0--|----0---0---0---0---0---0---0---0--|
D|-----------------------------------|--2-------7-------4-------9--------|
A|--5-------7-------2-------3--------|-----------------------------------|
E|-----------------------------------|-----------------------------------|x10

E|-----------------------------------|-----------------------------------|
B|------0-------0-------0-------0----|------0-------0-------0-------0----|
G|----0---0---0---0---0---0---0---0--|----0---0---0---0---0---0---0---0--|
D|-----------------------------------|-----------------------------------|
A|--5-------5-------5-------5--------|--7-------7-------2-------3--------|
E|-----------------------------------|-----------------------------------|x3

E|-----------------------------------|-----------------------------------|
B|------0-------0-------0-------0----|------0-------0-------0-------0----|
G|----0---0---0---0---0---0---0---0--|----0---0---0---0---0---0---0---0--|
D|-----------------------------------|-----------------------------------|
A|--5-------5-------5-------5--------|--7-------7-------2-------0--------|
E|-----------------------------------|-----------------------------------|

E|-----------------------------------|-----------------------------------|
B|------0-------0-------0-------0----|------0-------0-------0-------0----|
G|----0---0---0---0---0---0---0---0--|----0---0---0---0---0---0---0---0--|
D|-----------------------------------|--2-------7-------4-------9--------|
A|--5-------7-------2-------3--------|-----------------------------------|
E|-----------------------------------|-----------------------------------|x10

E|-----------------------------------|-----------------------------------|
B|------0-------0-------0-------0----|------0-------0-------0-------0----|
G|----0---0---0---0---0---0---0---0--|----0---0---0---0---0---0---0---0--|
D|-----------------------------------|-----------------------------------|
A|--5-------5-------5-------5--------|--7-------7-------2-------3--------|
E|-----------------------------------|-----------------------------------|x3

E|-----------------------------------|-----------------------------------|
B|------0-------0-------0-------0----|------0-------0-------0-------0----|
G|----0---0---0---0---0---0---0---0--|----0---0---0---0---0---0---0---0--|
D|-----------------------------------|-----------------------------------|
A|--5-------5-------5-------5--------|--7-------7-------2-------0--------|
E|-----------------------------------|-----------------------------------|

E|-----------------------------------|-----------------------------------|
B|------0-------0-------0-------0----|------0-------0-------0-------0----|
G|----0---0---0---0---0---0---0---0--|----0---0---0---0---0---0---0---0--|
D|-----------------------------------|--2-------7-------4-------9--------|
A|--5-------7-------2-------3--------|-----------------------------------|
E|-----------------------------------|-----------------------------------|

E|-----------------------------------|-----------------------------------|
B|------0-------0-------0-------0----|------0-------0--------------------|
G|----0---0---0---0---0---0---0---0--|----0---0---0---0------------------|
D|-----------------------------------|--2-------7-------4b---------------|
A|--5-------7-------2-------3--------|-----------------------------------|
E|-----------------------------------|-----------------------------------|

Lyrics:
Birds are singing in the alder trees
Another day is dawning
Don't let me get any older please
I'm so sick and tired of mourning
What has passed and what could've been
What can't be changed or attained
I've been taking all my medicine
But I'm still crazy and in pain

I sing songs to forget, to remember
But I can't hold a tune
I drink cup-a-soup for breakfast
Cause I don't have any spoons

The trees are naked in the cold air
But clinging to their catkins and cones
I can't hold nests upon my shoulders
I don't know how to keep a home
So I incubate all my anxieties
Hatch and mother my new fears
Regard my ugly children with a piety
Once reserved for gods held dear

Supplicate my mind for sanity
Often it ignores my prayers
I've never been one for prophecy
But it feels like I'm only getting worse

            
            
Suggest correction
Creating personal tab
Creating personal tab
You can edit any tab online and save it as your Personal.

You can edit, replace or remove any tab part or add personal notes – all changes will be seen only by you.

Personal tabs can be accessed anytime from any device, even offline.
Learn more »
Give kudos to tab author, rate the tab!
1 2 3 4 5
comments
print report bad tab
guest
You may want to rate the tab now too:
select rating
Wanna post a correction for this tab? Suggest correction