Oops, an error
Loading. Please wait.

Rehab bass

version 1
version 1

Whole song

Interactive

325 views 57 this week
no commentswrite comment
1 2 3 4 5
3 more votes to show rating
add to favorites
×
Save as Personal and add changes to this tab that will be seen only by you. Learn more ›
×
You can save this tab as Personal to edit and correct it or add notes. All changes will be seen only by you. Learn more »
launch autoscroll
font size
0
reset
guitar tuner
backing track
0:00
0:00
edit
Autoscroll
slow
fast
+/-
esc
set tempo
stop
Amy Winehouse - Rehab
Tabbed by electricbunny



[Intro]

G|--------------------------------|
D|--------------------------------|
A|--------------------------------| X18
E|--------------------------------|


[Verse 1] 
 
G|--------------------9-----------|--------------------9-----------|
D|------------------------9-------|------------------------9-------|
A|7-----------7-------------------|7-----------7-------------------|
E|----------------------------7---|----------------------------0---|
 
       
G|--------------------------------|--------------------------------|
D|--------------------7-----------|--------------------7-----------|
A|------------------------7-------|------------------------7-------|
E|5-----------5---------------0---|5-----------5---------------0---|
 
       
G|--------------------------------|--------------------------------|
D|--------------------3-----------|--------------------3-----------|
A|------------------------3-------|------------------------3-------|
E|1-----------1---------------0---|1-----------1---------------3---|
 
       
G|--------------------------------|--------------------------------|
D|--------------------6-----------|--------------------6-----------|
A|------------------------6-------|------------------------6-------|
E|4-----------4---------------3---|4-----------4---------------6---|
 
        
G|--------------------9-----------|--------------------9-----------|
D|------------------------9-------|------------------------9-------|
A|7-----------7-------------------|7-----------7-------------------|
E|----------------------------7---|----------------------------0---|
 
       
G|--------------------------------|--------------------------------|
D|--------------------7-----------|--------------------7-----------|
A|------------------------7-------|------------------------7-------|
E|5-----------5---------------0---|5-----------5---------------0---|
 
       
G|--------------------------------|--------------------------------|
D|--------------------3-----------|--------------------3-----------|
A|------------------------3-------|------------------------3-------|
E|1-----------1---------------0---|1-----------1---------------3---|
 
       
G|--------------------------------|--------------------------------|
D|--------------------6-----------|--------------------6-----------|
A|------------------------6-------|------------------------6-------|
E|4-----------4---------------3---|4-----------4---------------4---|
 
  
[Pre Chorus]
     
G|0-------------------------------|--------------------------------|
D|--------------------------------|--------------------------------|
A|--------------------------------|--------------------------------|
E|--------------------------------|--------------------------------|
 
        
G|0-------------------------------|--------------------------------|
D|--------------------------------|--------------------------------|
A|--------------------------------|--------------------------------|
E|--------------------------------|--------------------------------|
 
       
G|--------------------------------|--------------------------------|
D|3-------------------------------|--------------------------------|
A|--------------------------------|--------------------------------|
E|--------------------------------|--------------------------------|
 
       
G|--------------------------------|--------------------------------|
D|3-------------------------------|--------------------------------|
A|--------------------------------|--------------------------------|
E|--------------------------------|--------------------------------|
 
  
[Chorus]
     
G|--------------------------------|--------------------------------|
D|--------------------------------|--------------------------------|
A|3-------------------------------|--------------------------------|
E|--------------------------------|--------------------------------|
 
       
G|--------------------------------|--------------------------------|
D|--------------------------------|--------------------------------|
A|3-------------------------------|------------------------1---2---|
E|--------------------------------|--------------------3-----------|
 
       
G|--------------------------------|--------------------------------|
D|--------------------------------|--------------------------------|
A|3-------------------------------|--------------------------------|
E|--------------------------------|--------------------------------|
 
      
G|--------------------------------|--------------------------------|
D|--------------------------------|--------------------------------|
A|3-------------------------------|--------------------------------|
E|--------------------------------|--------------------0---1---2---|
 
        
G|--------------------------------|--------------------------------|
D|--------------------------------|--------------------------------|
A|--------------------------------|--------------------------------|
E|3-------------------------------|--------------------------------|
 
     
G|--------------------------------|--------------------------------|
D|--------------------------------|--------------------------------|
A|--------------------------------|--------------------0---1---2---|
E|1-------------------------------|--------------------------------|
 
       
G|--------------------------------|--------------------------------|
D|--------------------------------|3-------------------------------|
A|3-------------------------------|--------------------------------|
E|--------------------------------|--------------------------------|
 
     
G|--------------------------------|--------------------------------|
D|--------------------------------|--------------------------------|
A|3-------------------------------|--------------------------------|
E|--------------------------------|--------------------------------|
 
  
[Verse 2]     
G|--------------------9-----------|--------------------9-----------|
D|------------------------9-------|--------------------------------|
A|7-----------7-------------------|7-----------7-----------9-------|
E|----------------------------7---|----------------------------0---|
 
       
G|--------------------------------|--------------------------------|
D|--------------------7-----------|--------------------7-----------|
A|------------------------7-------|------------------------7-------|
E|5-----------5---------------0---|5-----------5---------------0---|
 
       
G|--------------------------------|--------------------------------|
D|--------------------3-----------|--------------------3-----------|
A|------------------------3-------|------------------------3-------|
E|1-----------1---------------0---|1-----------1---------------3---|
 
       
G|--------------------------------|--------------------------------|
D|--------------------6-----------|--------------------6-----------|
A|------------------------6-------|------------------------6-------|
E|4-----------4---------------3---|4-----------4---------------6---|
 
      
G|--------------------9-----------|--------------------9-----------|
D|------------------------9-------|------------------------9-------|
A|7-----------7-------------------|7-----------7-------------------|
E|----------------------------7---|----------------------------0---|
 
        
G|--------------------------------|--------------------------------|
D|--------------------7-----------|--------------------7-----------|
A|------------------------7-------|------------------------7-------|
E|5-----------5---------------0---|5-----------5---------------0---|
 
      
G|--------------------------------|--------------------------------|
D|--------------------3-----------|--------------------3-----------|
A|------------------------3-------|------------------------3-------|
E|1-----------1---------------0---|1-----------1---------------3---|
 
        
G|--------------------------------|--------------------------------|
D|--------------------6-----------|--------------------6-----------|
A|------------------------6-------|------------------------6-------|
E|4-----------4---------------3---|4-----------4---------------4---|
 
   
[Pre Chorus]  
  
G|0-------------------------------|--------------------------------|
D|--------------------------------|--------------------------------|
A|--------------------------------|--------------------------------|
E|--------------------------------|--------------------------------|
 
       
G|0-------------------------------|----------------0---------------|
D|--------------------------------|------------0-----------4-------|
A|--------------------------------|--------------------------------|
E|--------------------------------|--------------------------------|
 
       
G|--------------------------------|--------------------------------|
D|3-------------------------------|--------------------------------|
A|--------------------------------|--------------------------------|
E|--------------------------------|--------------------------------|
 
 
[Chorus] 
      
G|--------------------------------|--------------------------------|
D|3-------------------------------|--------------------------------|
A|--------------------------------|------------------------1---2---|
E|--------------------------------|--------------------3-----------|
 
       
G|--------------------------------|--------------------------------|
D|--------------------------------|--------------------------------|
A|3-------------------------------|--------------------------------|
E|--------------------------------|--------------------------------|
 
       
G|--------------------------------|--------------------------------|
D|--------------------------------|--------------------------------|
A|3-------------------------------|------------------------1---2---|
E|--------------------------------|--------------------3-----------|
 
      
G|--------------------------------|--------------------------------|
D|--------------------------------|--------------------------------|
A|3-------------------------------|--------------------------------|
E|--------------------------------|--------------------------------|
 
        
G|--------------------------------|--------------------------------|
D|--------------------------------|--------------------------------|
A|3-------------------------------|--------------------------------|
E|--------------------------------|--------------------------------|
 
  
[Verse 3]
     
G|--------------------9-----------|--------------------9-----------|
D|------------------------9-------|--------------------------------|
A|7-----------7-------------------|7-----------7-----------9-------|
E|----------------------------7---|----------------------------0---|
 
       
G|--------------------------------|--------------------------------|
D|--------------------7-----------|--------------------7-----------|
A|------------------------7-------|------------------------7-------|
E|5-----------5---------------0---|5-----------5---------------0---|
 
        
G|--------------------------------|--------------------------------|
D|--------------------3-----------|--------------------3-----------|
A|------------------------3-------|------------------------3-------|
E|1-----------1---------------0---|1-----------1---------------3---|
 
       
G|--------------------------------|--------------------------------|
D|--------------------6-----------|--------------------6-----------|
A|------------------------6-------|------------------------6-------|
E|4-----------4---------------3---|4-----------4---------------6---|
 
        
G|--------------------9-----------|--------------------9-----------|
D|------------------------9-------|------------------------9-------|
A|7-----------7-------------------|7-----------7-------------------|
E|----------------------------7---|----------------------------0---|
 
       
G|--------------------------------|--------------------------------|
D|--------------------7-----------|--------------------7-----------|
A|------------------------7-------|------------------------7-------|
E|5-----------5---------------0---|5-----------5---------------0---|
 
        
G|--------------------------------|--------------------------------|
D|--------------------3-----------|--------------------3-----------|
A|------------------------3-------|------------------------3-------|
E|1-----------1---------------0---|1-----------1---------------3---|
 
       
G|--------------------------------|--------------------------------|
D|--------------------6-----------|--------------------6-----------|
A|------------------------6-------|------------------------6-------|
E|4-----------4---------------3---|4-----------4---------------4---|
 
 
[Pre Chorus]       
G|0-------------------------------|--------------------------------|
D|--------------------------------|--------------------------------|
A|--------------------------------|--------------------------------|
E|--------------------------------|--------------------------------|
 
       
G|0-------------------------------|----------------0---------------|
D|--------------------------------|------------0-----------4-------|
A|--------------------------------|--------------------------------|
E|--------------------------------|--------------------------------|
 
         
G|--------------------------------|--------------------------------|
D|3-------------------------------|--------------------------------|
A|--------------------------------|--------------------------------|
E|--------------------------------|--------------------------------|
 
       
G|--------------------------------|--------------------------------|
D|3-------------------------------|--------------------------------|
A|--------------------------------|------------------------1---2---|
E|--------------------------------|--------------------3-----------|
 
  
[Chorus]      
G|--------------------------------|--------------------------------|
D|--------------------------------|--------------------------------|
A|3-------------------------------|--------------------------------|
E|--------------------------------|--------------------------------|
 
     
G|--------------------------------|--------------------------------|
D|--------------------------------|--------------------------------|
A|3-------------------------------|------------------------1---2---|
E|--------------------------------|--------------------3-----------|
 
        
G|--------------------------------|--------------------------------|
D|--------------------------------|--------------------------------|
A|3-------------------------------|--------------------------------|
E|--------------------------------|--------------------------------|
 
        
G|--------------------------------|--------------------------------|
D|--------------------------------|--------------------------------|
A|3-------------------------------|--------------------------------|
E|--------------------------------|--------------------------------|
 
 
[Outro]      
G|--------------------------------|--------------------------------|
D|--------------------5-----------|--------------------5-----------|
A|------------------------5-------|------------------------5-------|
E|3-----------3---------------0---|3-----------3---------------0---|
 
        
G|--------------------------------|--------------------------------|
D|--------------------3-----------|--------------------3-----------|
A|------------------------3-------|------------------------0---1---|
E|1-----------1---------------0---|1-----------1-------------------|
 
        
G|--------------------5-----------|--------------------------------|
D|------------------------5-------|3-----------3-------------------|
A|3-----------3---------------3---|--------------------0---1---2---|
E|--------------------------------|--------------------------------|
 
       
G|--------------------5-----------|--------------------------------|
D|------------------------5-------|--------------------------------|
A|3-----------3---------------0---|3-------------------------------|
E|--------------------------------|--------------------------------|
 



            
            
Suggest correction
Creating personal tab
Creating personal tab
You can edit any tab online and save it as your Personal.

You can edit, replace or remove any tab part or add personal notes – all changes will be seen only by you.

Personal tabs can be accessed anytime from any device, even offline.
Learn more »
Give kudos to tab author, rate the tab!
1 2 3 4 5
comments
print report bad tab
guest
You may want to rate the tab now too:
select rating
Wanna post a correction for this tab? Suggest correction