Oops, an error
Loading. Please wait.
We have Chord Pro version of Valerie.
It's the closest thing you can get to the original song and it has interactive parts. Check out the tab »
×
54,730 views 192 this week
2 commentsread comments
1 2 3 4 5
x 22
add to favorites
×
Save as Personal and add changes to this tab that will be seen only by you. Learn more ›
×
You can save this tab as Personal to edit and correct it or add notes. All changes will be seen only by you. Learn more »
launch autoscroll
font size
0
reset
guitar tuner
edit
Autoscroll
slow
fast
+/-
esc
set tempo
stop
Amy Winehouse - Valerie

Standard Tuning

This song might originally be tuned lower and played lower 
but personally i like to play it with my thumb and use 
my palm to slightly mute the bridge and roll off the tone.

  
[Intro]

(come in with drums)
G|-----------------------------------------------------------------------------------|
D|-----------------------------------------------------------------------------------|
A|-6-x-6-x-6-x-6-6-x-x-6-x-6-x-6-x-6-6-x-x-6-x-6-x-6-x-6-6-x-x-6-x-6-x-6-x-x-6-x-----|
E|-------------------------------------------------------------------------------6h8-|


[Verse]

G|---------------------------------------------------------------------------------|
D|---------------------------------------------------------------------------------|
A|-6-x-6-x-6-x-x---6-6-6-x-6-x-6-x-x-6-6-5-8-x-8-x-8-x-x-8-8---8-x-8-x-8-x-x-8-8-7-|
E|---------------6-------------------------------------------8---------------------|

G|-------------------------------------------------------------------------------------|
D|-------------------------------------------------------------------------------6-6---|
A|-6-x-6-x-6-x-x-6-6---6-x-6-x-6-x-x-6-5-6-8-x-8-x-8-x-x-8-8---8-x-8-x-8-x-x-8-8-----8-|
E|-------------------6---------------------------------------8-------------------------|


[Pre-Chorus]

G|----------------------------------------------------------------------------------------------------|
D|------------------------------------------------------------------------------------------x-8-6-5---|
A|----------------------------------------------------6---------------------------------------------8-|
E|4-x-4-x-4-x-4-4-4-3-x-3-x-3-x-3-3-3-4-x-4-x-4-x-4-4---3-x-3-x-3-x-3-4-5-6-x-6-x-6-x-6-6-6-----------|


[Outro]

G|------------------------------------------------------------------------------------------|
D|-------------------------------------------------------------------------------8-6-5------|
A|-6-x-6-x-6-x-x-6-6---6-x-6-x-6-x-x-6-6-5-8-x-8-x-8-x-x-8-8---8-x-8-x-8-x-x-8-8-------8-6~-|
E|-------------------6---------------------------------------8------------------------------|

************************************

| x  Dead note
| h  Hammer-on
| ~  Vibrato

************************************
Suggest correction
Creating personal tab
Creating personal tab
You can edit any tab online and save it as your Personal.

You can edit, replace or remove any tab part or add personal notes – all changes will be seen only by you.

Personal tabs can be accessed anytime from any device, even offline.
Learn more »
comments
print report bad tab
2 comments total.
0 reply
florentrodrigues 10 Jun 22, 2016 07:31 AM

http://www.bigbasstabs.com/amy_winehouse_bass_tabs/valerie.html

0 reply
noel.delmundo19 10 Mar 23, 2017 11:47 AM

this isn't amy winehouse's version. this is mark ronson's.

guest
You may want to rate the tab now too:
select rating
Wanna post a correction for this tab? Suggest correction