Oops, an error
Loading. Please wait.

Will You Still Love Me Tomorrow tab

373 views 24 this week
no commentswrite comment
1 2 3 4 5
2 more votes to show rating
add to favorites
×
Save as Personal and add changes to this tab that will be seen only by you. Learn more ›
×
You can save this tab as Personal to edit and correct it or add notes. All changes will be seen only by you. Learn more »
launch autoscroll
font size
0
reset
how to read this tab
guitar tuner
edit
Autoscroll
slow
fast
+/-
esc
set tempo
stop
Author
Difficulty
[Intro]
   C
e|-----------------|-----------------|
B|-----5-----5-x---|---5-x-5-----5---|
G|-5---5-----5-x---|---5-x-5-----5---|
D|-5---5-----5-x---|---5-x-5-----5---|
A|-3-----3-3-----3-|-3---------3---3-|
E|-----------------|-----------------|

[Verse 1]
   C                                             Fmaj7            G7sus4
e|-------------------------|-------------------|----------------|--------------------|
B|------5--------5--x------|----5-x--5-----5---|-5--5-----5-x---|----3-x-3-------3---|
G|-5----5--------5--x------|----5-x--5-----5---|-5--5-----5-x---|----5-x-5-------5---|
D|-5----5--------5--x------|----5-x--5-----5---|-3--3-----3-x---|----3-x-3-------3---|
A|-3-------3--3----------3-|-3-----------3---3-|------3-3-------|--------------------|
E|-------------------------|-------------------|--------------3-|-3------------3---3-|
        To_night you're  mine            com_____ple______tly

   C                                              Fmaj7            G
e|----------------------|-----------------------|----------------|---3-x-3-------3---|
B|----5---------5--x----|----5-x--5--------5----|-5--5-----5-x---|---3-x-3-------3---|
G|-5--5---------5--x----|----5-x--5--------5----|-5--5-----5-x---|---4-x-4-------4---|
D|-5--5---------5--x----|----5-x--5--------5----|-3----3-3-3-x---|-------------------|
A|-3------3--3--------3-|-3--------------3---3--|----------------|-------------------|
E|----------------------|-----------------------|--------------3-|-3-----------3---3-|
      You give  your  love               so       swee_____tly

   E7sus4                E7                      Am         E7        Am
e|---------------------|-----------------------|--------------------|-------------------|
B|---------------------|-----------------------|----1---------------|-------------------|
G|-------2-----2-------|-----1-----1-------1---|----2-----------1---|-----2-------------|
D|-------0-----0-------|-----0-----0-------0---|--------------0---0-|---2---2-----2-2-3-|
A|-2---------2-------2-|-2---------2-----2---2-|-0-------0--2-------|-0-----------------|
E|---------------------|-----------------------|--------------------|-------------------|
   To_night              the light               of love is in  your  eyes

   F                   G7                 C
e|----1----5p3p0-3---|------3-----3-----|----------------|-------------------|
B|-------------------|------3-----3-----|----5-----5-x---|---5-x-5-------5---|
G|-------------------|------4-----4-----|-5--5-----5-x---|---5-x-5-------5---|
D|-3----3------------|---3------3-------|-5--5-----5-x---|---5-x-5-------5---|
A|-------------------|------------------|-3----3-3-----3-|-3-----------3---3-|
E|-------------------|-3------3-----3---|----------------|-------------------|
      Will you   still love me      to____mo_____rrow?

[Verse 2]
   C                                               Fmaj7            G7sus4
e|-----------------------|-----------------------|----------------|--------------------|
B|------5--------5--x----|----5-x--5--------5----|-5--5-----5-x---|----3-x-3-------3---|
G|-5----5--------5--x----|----5-x--5--------5----|-5--5-----5-x---|----5-x-5-------5---|
D|-5----5--------5--x----|----5-x--5--------5----|-3--3-----3-x---|----3-x-3-------3---|
A|-3-------3--3--------3-|-3--------------3---3--|------3-3-------|--------------------|
E|-----------------------|-----------------------|--------------3-|-3------------3---3-|
        Is this  a     lasting              trea_____sure

   C                                             Fmaj7            G
e|----------------------|----------------------|----------------|---3-x-3-------3---|
B|----5---------5--x----|----5-x--5--------5---|-5--5-----5-x---|---3-x-3-------3---|
G|-5--5---------5--x----|----5-x--5--------5---|-5--5-----5-x---|---4-x-4-------4---|
D|-5--5---------5--x----|----5-x--5--------5---|-3----3-3---x---|-------------------|
A|-3------3--3--------3-|-3--------------3---3-|----------------|-------------------|
E|----------------------|----------------------|--------------3-|-3-----------3---3-|
      or  just  a     mo_______ment's            plea_____sure

   E7sus4                 E7                      Am            E7        Am
e|----------------------|-----------------------|-----------------------|-------------------|
B|----------------------|-----------------------|------1----------------|-------------------|
G|--------2-----2-------|-----1-----1-------1---|------2------------1---|-----2-------------|
D|--------0-----0-------|-----0-----0-------0---|-----------------0---0-|---2---2-----2-2-3-|
A|-2----------2-------2-|-2---------2-----2---2-|-0---------0---2-------|-0-----------------|
E|----------------------|-----------------------|-----------------------|-------------------|
   Can I                  be__lieve               the  ma___gic of  your  sighs

   F                   G7                 C
e|----1----5p3p0-3---|------3-----3-----|----------------|-------------------|
B|-------------------|------3-----3-----|----5-----5-x---|---5-x-5-------5---|
G|-------------------|------4-----4-----|-5--5-----5-x---|---5-x-5-------5---|
D|-3----3------------|---3------3-------|-5--5-----5-x---|---5-x-5-------5---|
A|-------------------|------------------|-3----3-3-----3-|-3-----------3---3-|
E|-------------------|-3------3-----3---|----------------|-------------------|
      Will you   still love me      to____mo_____rrow?

[Bridge]
   F                                                 Em7
e|-------3--------3--x--5-|-(5)---5----5h-3h-0--3--|-0--0-----0-x----|----0-x-0-------0---|
B|-------1--------1--x----|------------------------|-3--3-----3-x----|----3-x-3-------3---|
G|-------2--------2--x----|------------------------|-0--0-----0-x----|----0-x-0-------0---|
D|-3--------3--3--------3-|--3------3--------------|-----------------|--------------------|
A|------------------------|------------------------|-----------------|--------------------|
E|------------------------|------------------------|-0----0-0-----0--|-0------------0---0-|
      To__night with        words              uns__ po_____ken

   F                                                 C                  C7
e|--------------------------|----------------------|-0--0-----0-x-----|----0-x-0--------0----|
B|-------8---------8-----10-|-------10-------8-----|-1--1-----1-x-----|----1-x-1--------1----|
G|-------10--------10----10-|-------10-------10----|-0--0-----0-x-----|----3-x-3--------3----|
D|-------10--------10----10-|-------10-------10----|------------------|----------------------|
A|-8---------8--8-----8-----|-8--------8--8-----8--|-3----3-3-------3-|-3------------3-----3-|
E|--------------------------|----------------------|------------------|----------------------|
      you say   that         I'm           the on____ly  one        The o___nly  one

   F                                                 Em7
e|-------3--------3--x--5-|-(5)--5-----5h-3h-0--3--|-0--0------0-x---|---0-x-0-------0---|
B|-------1--------1--x----|------------------------|-3--3------3-x---|---3-x-3-------3---|
G|-------2--------2--x----|------------------------|-0--0------0-x---|---0-x-0-------0---|
D|-3--------3--3--------3-|--3------3--------------|-----------------|-------------------|
A|------------------------|------------------------|-----------------|-------------------|
E|------------------------|------------------------|-0----0--0-----0-|-0-----------0---0-|
      but will my            heart            be     bro_____ken

   Am                    D                       Dm                      G
e|-0--0--------0--x----|----2-x-2--------2-----|-1---1----------1-x----|---3-x-3-------3---|
B|-1--1--------1--x----|----3-x-3--------3-----|-3---3----------3-x----|---3-x-3-------3---|
G|-2--2--------2--x----|----2-x-2--------2-----|-2---2----------2-x----|---4-x-4-------4---|
D|---------------------|-0------------0-----0--|-0------0-----0--------|-------------------|
A|-0----0--0---------0-|-----------------------|-----------------------|-------------------|
E|---------------------|-----------------------|---------------------3-|-3-----3-----3---3-|
      when the night                  meets the  mo_____rning  star

[Verse 3]
   C                                               Fmaj7            G7sus4
e|------------------------|----------------------|----------------|--------------------|
B|------5---------5--x----|----5-x--5--------5---|-5--5-----5-x---|----3-x-3-------3---|
G|-5----5---------5--x----|----5-x--5--------5---|-5--5-----5-x---|----5-x-5-------5---|
D|-5----5---------5--x----|----5-x--5--------5---|-3--3-----3-x---|----3-x-3-------3---|
A|-3--------3--3--------3-|-3--------------3---3-|------3-3-------|--------------------|
E|------------------------|----------------------|--------------3-|-3------------3---3-|
        I'd like  to    know               that    your     love

   C                                              Fmaj7            G
e|----------------------|-----------------------|----------------|---3-x-3-------3---|
B|----5---------5--x----|----5-x--5--------5----|-5--5-----5-x---|---3-x-3-------3---|
G|-5--5---------5--x----|----5-x--5--------5----|-5--5-----5-x---|---4-x-4-------4---|
D|-5--5---------5--x----|----5-x--5--------5----|-3--3-----3-x---|-------------------|
A|-3------3--3--------3-|-3--------------3---3--|------3-3-------|-------------------|
E|----------------------|-----------------------|--------------3-|-3-----------3---3-|
      is  love  I     can                    be   sure     of

   E7sus4                 E7                      Am             E7         Am
e|----------------------|-----------------------|-------------------------|------------------|
B|----------------------|-----------------------|-------1-----------------|------------------|
G|--------2-----2-------|-----1-----1-------1---|-------2-------------1---|-----2------------|
D|--------0-----0-------|-----0-----0-------0---|-------------------0---0-|---2---2----2-2-3-|
A|-2----------2-------2-|-2---------2-----2---2-|-0-----------0--2--------|-0----------------|
E|----------------------|-----------------------|-------------------------|------------------|
   so  tell               me  now                 cause I     won't ask a_______gain

   F                      G7                   C
e|---1-----5p3p0----3---|------3------3------|----------------|-------------------|
B|----------------------|------3------3------|----5-----5-x---|---5-x-5-------5---|
G|----------------------|------4------4------|-5--5-----5-x---|---5-x-5-------5---|
D|-3---3----------------|---3-------3--------|-5--5-----5-x---|---5-x-5-------5---|
A|----------------------|--------------------|-3----3-3-----3-|-3-----------3---3-|
E|----------------------|-3------3-------3---|----------------|-------------------|
               Will you       still love me         to__mo________rrow?

   F                   G7                 C
e|----1----5p3p0-3---|------3-----3-----|----------------|-------------------|
B|-------------------|------3-----3-----|----5-----5-x---|---5-x-5-------5---|
G|-------------------|------4-----4-----|-5--5-----5-x---|---5-x-5-------5---|
D|-3----3------------|---3------3-------|-5--5-----5-x---|---5-x-5-------5---|
A|-------------------|------------------|-3----3-3-----3-|-3-----------3---3-|
E|-------------------|-3------3-----3---|----------------|-------------------|
      Will you   still love me      to____mo_____rrow?           yeah

[Outro]
   C
e|-----------------|-----------------|-----------------|-----------------|
B|-----5-----5-x---|---5-x-5-----5---|-----5-----5-x---|---5-x-5-----5---|
G|-5---5-----5-x---|---5-x-5-----5---|-5---5-----5-x---|---5-x-5-----5---|
D|-5---5-----5-x---|---5-x-5-----5---|-5---5-----5-x---|---5-x-5-----5---| Repeat and fade out
A|-3-----3-3-----3-|-3---------3---3-|-3-----3-3-----3-|-3---------3---3-|
E|-----------------|-----------------|-----------------|-----------------|

************************************

| x  Dead note
| p  Pull-off

************************************

            
            
Suggest correction
Creating personal tab
Creating personal tab
You can edit any tab online and save it as your Personal.

You can edit, replace or remove any tab part or add personal notes – all changes will be seen only by you.

Personal tabs can be accessed anytime from any device, even offline.
Learn more »
Give kudos to tab author, rate the tab!
1 2 3 4 5
comments
print report bad tab
guest
You may want to rate the tab now too:
select rating
Wanna post a correction for this tab? Suggest correction