Oops, an error
Loading. Please wait.
We have Chord Pro version of You Know Im No Good.
It's the closest thing you can get to the original song and it has interactive parts. Check out the tab »
×

You Know Im No Good bass

version 2
version 2

Whole song

  • Changing meta info at top of tab. No change to actual tab.

Interactive

28,629 views 57 this week
4 commentsread comments
1 2 3 4 5
x 21
add to favorites
×
Save as Personal and add changes to this tab that will be seen only by you. Learn more ›
×
You can save this tab as Personal to edit and correct it or add notes. All changes will be seen only by you. Learn more »
launch autoscroll
font size
0
reset
guitar tuner
edit
Autoscroll
slow
fast
+/-
esc
set tempo
stop
Author
Difficulty
Unregistered
intermediate
Before anything else, I basically need to say that this is someone else's tab.
I rewrote the tab to see the scales to add fills (a lot of chromatic notes) and to keep 
notes in a general area of the fretboard to make it easier to play.
All credit goes to Dr. Jones (as his username states, don't know real name). I would 
just kept it to myself but I'm a generous person.

Extra note: I believe the song is in D Minor though I may be wrong.

[Intro]
Rest for two bars, Intro Riff x3, Intro Ending x1

Intro Riff x3                        Intro Ending Riff x1
G||-------------------------|        G||-------------------------|
D||-------------------------|        D||-------------------------|
A||--5-------5-------3--4---|        A||--5-------5---5----3--4--|
E||------------5--5---------|        E||------------5---5--------|

[Verse 1:] Verse Riff x1, Mid-Verse Riff 1 x1, Verse Riff x1, Mid-Verse Riff 1 x1, Verse 
x1

Verse Riff
G||------------------------|------------------------|------------------------|
D||------------------3--4--|--5-------5-------5--6--|--7-------7--------7----|
A||--5-------5-------------|------------5--5--------|------------7--7-----4--|
E||------------5--5--------|------------------------|------------------------|

Mid-Verse Riff 1:                   Verse End Riff:
G||------------------------|        G||------------------------|
D||------------------------|        D||------------------------|
A||--5-------5-------3--4--|        A||--5-------5-------5-----|
E||------------5--5--------|        E||------------5--5-----5--|

Bridge and Chorus 1: Bridge Riff x1, Bridge End x1, Chorus Riff x1, Rest for two bars

[Bridge Riff:]
G||--------------------------|--------------------------|
D||--5-----5-----5-----5-----|--5-----5-----5-----5-----|
A||-----5-----5-----5-----5--|-----5-----5-----5-----5--|
E||--------------------------|--------------------------|

G||--------------------------|--------------------------|
D||--------------------------|--------------------------|
A||--7-----7-----7-----7-----|--7-----7-----7-----7-----|
E||-----7-----7-----7-----7--|-----7-----7-----7-----7--|

G||--------------------------|--------------------------|
D||--------------------------|--------------------------|
A||--8-----8-----8-----8-----|--8-----8-----8-----8-----|
E||-----8-----8-----8-----8--|-----8-----8-----8-----8--|

                                      Bridge End
G||--------------------------|        G||--------------------------|
D||--------------------------|        D||--7-----7-----7-----7-----|
A||--7-----7-----7-----7-----|        A||--------------------------|
E||-----7-----7-----7-----7--|        E||-----5-----5-----5-----5--|

[Chorus] Riff:
G||------------------------|---------------------------|
D||------------------5--6--|--7--------7----------7----|
A||--5-------5-------------|-------------7--7-------5--|
E||------------5--5--------|---------------------------|

G||------------------------|-------------------------|
D||------------------------|-------7---7-------7-----|
A||--7-------7-------7-----|-------------5--5-----4--|
E||------------7--7-----7--|----7--------------------|

[Verse 2:]
Verse Riff x1, Mid-Verse Riff 2 x1, Verse Riff x1, Verse End x1

Mid-Verse Riff 2:                        Verse End Riff:
G||-------7--7-7-7-7-7-7-7------|        G||------------------------|
D||------------------------7-0--|        D||------------------------|
A||--5--------------------------|        A||--5-------5-------5-----|
E||-----------------------------|        E||------------5--5-----5--|

[Bridge and Chorus 2:] Bridge Riff x1, Bridge End x1, Chorus Riff x1, Rest for three bars, 
Ending x1

Break Ending:
G||---------------------------|
D||-----------7---7---7---7---|
A||---------------------------|
E||---------5---5---5---5---5-|

[Interlude:] Saxophone Solo x1

Saxophone Solo:
G||------------------------|-------------------------|
D||------------------5--6--|--7-------7-------7------|
A||--5-------5-------------|------------7--7-----5---|
E||------------5--5--------|-------------------------|

G||------------------------|---------------------------|
D||------------------------|-------5-7--5-7--5-7--5-7--|
A||--7-------7-------7-----|---------------------------|
E||------------7--7-----7--|--5------------------------|

G||-------------------|-------7--7-7-7-7-7-7-7------|
D||----------------2--|------------------------7-0--|
A||-------------------|--5--------------------------|
E||-------------------|-----------------------------|

[Verse 3:]
Verse Riff x1, Mid-Verse Riff 1 x1

Bridge and Chorus 3: Bridge Riff x1, Rest for one bar, Chorus Riff x1

Outro: Chorus Riff x2

Song End.


Order of Riffs
[Intro]
Rest for two bars, Intro Riff x3, Intro Ending x1

[Verse 1]
Verse Riff x1, Mid-Verse Riff 1 x1, Verse Riff x1, Mid-Verse Riff 1 x1, Verse End x1

Bridge and Chorus 1:
Bridge Riff x1, Bridge End x1, Chorus Riff x1, Rest for two bars

[Verse 2]
Verse Riff x1, Mid-Verse Riff 2 x1, Verse Riff x1, Mid-Verse Riff 2 x1, Verse End x1

Bridge and Chorus 2:
Bridge Riff x1, Bridge End x1, Chorus Riff x1, Rest for three bars, Break Ending x1

[Interlude]
Saxophone Solo x1

[Verse 3]
Verse Riff x1, Mid-Verse Riff 1 x1

Bridge and Chorus 3:
Bridge Riff x1, Rest for one bar (rather than play Bridge End), Chorus Riff x1

[Outro]
Chorus Riff x2

There may be errors in my transposition and I apologize for them. Again, ALL credit goes 
Dr. Jones. I can take no credit for this, I am merely the messenger.

            
            
Suggest correction
Creating personal tab
Creating personal tab
You can edit any tab online and save it as your Personal.

You can edit, replace or remove any tab part or add personal notes – all changes will be seen only by you.

Personal tabs can be accessed anytime from any device, even offline.
Learn more »
comments
print report bad tab
4 comments total. Showing first comments.
0 reply
DarknessLooms 10 Sep 04, 2009 05:56 PM

I'm sorry I was wrong. I really don't know what scale this song is in. It could be some blues scale or some minor scale.

The fifth bar of the saxophone solo should be A7 (E), rather than D2 (E), just to keep it all together.

+2 reply
GrischkaBass 136 Aug 27, 2012 07:54 AM

the tab is hard to read so I thought to post them together here:


Rest for two bars

Intro Riff x3 Intro Ending Riff x1
G||-------------------------| G||-------------------------|
D||-------------------------| D||-------------------------|
A||--5-------5-------3--4---| A||--5-------5---5----3--4--|
E||------------5--5---------| E||------------5---5--------|

Verse 1:
Verse Riff
G||------------------------|------------------------|------------------------|
D||------------------3--4--|--5-------5-------5--6--|--7-------7--------7----|
A||--5-------5-------------|------------5--5--------|------------7--7-----4--|
E||------------5--5--------|------------------------|------------------------|

Mid-Verse Riff 1:
G||------------------------|
D||------------------------|
A||--5-------5-------3--4--|
E||------------5--5--------|

Verse Riff
G||------------------------|------------------------|------------------------|
D||------------------3--4--|--5-------5-------5--6--|--7-------7--------7----|
A||--5-------5-------------|------------5--5--------|------------7--7-----4--|
E||------------5--5--------|------------------------|------------------------|

Mid-Verse Riff 1: Verse End Riff:
G||------------------------| G||------------------------|
D||------------------------| D||------------------------|
A||--5-------5-------3--4--| A||--5-------5-------5-----|
E||------------5--5--------| E||------------5--5-----5--|

Chorus 1:

Bridge Riff:
G||--------------------------|--------------------------|
D||--5-----5-----5-----5-----|--5-----5-----5-----5-----|
A||-----5-----5-----5-----5--|-----5-----5-----5-----5--|
E||--------------------------|--------------------------|

G||--------------------------|--------------------------|
D||--------------------------|--------------------------|
A||--7-----7-----7-----7-----|--7-----7-----7-----7-----|
E||-----7-----7-----7-----7--|-----7-----7-----7-----7--|

G||--------------------------|--------------------------|
D||--------------------------|--------------------------|
A||--8-----8-----8-----8-----|--8-----8-----8-----8-----|
E||-----8-----8-----8-----8--|-----8-----8-----8-----8--|

G||--------------------------|
D||--------------------------|
A||--7-----7-----7-----7-----|
E||-----7-----7-----7-----7--|

Bridge End
G|---------------------------|
D||--7-----7-----7-----7-----|
A||--------------------------|
E||-----5-----5-----5-----5--|

Chorus Riff:
G||------------------------|---------------------------|
D||------------------5--6--|--7--------7----------7----|
A||--5-------5-------------|-------------7--7-------5--|
E||------------5--5--------|---------------------------|

G||------------------------|-------------------------|
D||------------------------|-------7---7-------7-----|
A||--7-------7-------7-----|-------------5--5-----4--|
E||------------7--7-----7--|----7--------------------|

Bridge End
G|---------------------------|
D||--7-----7-----7-----7-----|
A||--------------------------|
E||-----5-----5-----5-----5--|

Rest for two bars

Verse 2: Verse Riff x1, Mid-Verse Riff 2 x1, Verse Riff x1, Verse End x1

Verse Riff
G||------------------------|------------------------|------------------------|
D||------------------3--4--|--5-------5-------5--6--|--7-------7--------7----|
A||--5-------5-------------|------------5--5--------|------------7--7-----4--|
E||------------5--5--------|------------------------|------------------------|

Mid-Verse Riff 2:
G||-------7--7-7-7-7-7-7-7------|
D||------------------------7-0--|
A||--5--------------------------|
E||-----------------------------|

Verse Riff
G||------------------------|------------------------|------------------------|
D||------------------3--4--|--5-------5-------5--6--|--7-------7--------7----|
A||--5-------5-------------|------------5--5--------|------------7--7-----4--|
E||------------5--5--------|------------------------|------------------------|

Mid-Verse Riff 2: Verse End Riff:
G||-------7--7-7-7-7-7-7-7------| G||------------------------|
D||------------------------7-0--| D||------------------------|
A||--5--------------------------| A||--5-------5-------5-----|
E||-----------------------------| E||------------5--5-----5--|

Bridge and Chorus 2: Bridge Riff x1, Bridge End x1, Chorus Riff x1, Rest for three bars,
Ending x1

Bridge Riff:
G||--------------------------|--------------------------|
D||--5-----5-----5-----5-----|--5-----5-----5-----5-----|
A||-----5-----5-----5-----5--|-----5-----5-----5-----5--|
E||--------------------------|--------------------------|

G||--------------------------|--------------------------|
D||--------------------------|--------------------------|
A||--7-----7-----7-----7-----|--7-----7-----7-----7-----|
E||

+1 reply
GrischkaBass 136 Aug 27, 2012 07:57 AM

G||--------------------------|
D||--------------------------|
A||--7-----7-----7-----7-----|
E||-----7-----7-----7-----7--|

Bridge End
G|---------------------------|
D||--7-----7-----7-----7-----|
A||--------------------------|
E||-----5-----5-----5-----5--|

Chorus Riff:
G||------------------------|---------------------------|
D||------------------5--6--|--7--------7----------7----|
A||--5-------5-------------|-------------7--7-------5--|
E||------------5--5--------|---------------------------|

G||------------------------|-------------------------|
D||------------------------|-------7---7-------7-----|
A||--7-------7-------7-----|-------------5--5-----4--|
E||------------7--7-----7--|----7--------------------|

Rest for 3 bars

Break Ending:
G||---------------------------|
D||-----------7---7---7---7---|
A||---------------------------|
E||---------5---5---5---5---5-|

Interlude: Saxophone Solo x1

Saxophone Solo:
G||------------------------|-------------------------|
D||------------------5--6--|--7-------7-------7------|
A||--5-------5-------------|------------7--7-----5---|
E||------------5--5--------|-------------------------|

G||------------------------|---------------------------|
D||------------------------|-------5-7--5-7--5-7--5-7--|
A||--7-------7-------7-----|---------------------------|
E||------------7--7-----7--|--5------------------------|

G||-------------------|-------7--7-7-7-7-7-7-7------|
D||----------------2--|------------------------7-0--|
A||-------------------|--5--------------------------|
E||-------------------|-----------------------------|

Verse 3: Verse Riff x1, Mid-Verse Riff 1 x1

Verse Riff
G||------------------------|------------------------|------------------------|
D||------------------3--4--|--5-------5-------5--6--|--7-------7--------7----|
A||--5-------5-------------|------------5--5--------|------------7--7-----4--|
E||------------5--5--------|------------------------|------------------------|

Mid-Verse Riff 1:
G||------------------------|
D||------------------------|
A||--5-------5-------3--4--|
E||------------5--5--------|

Bridge and Chorus 3: Bridge Riff x1, Rest for one bar, Chorus Riff x1

Bridge Riff:
G||--------------------------|--------------------------|
D||--5-----5-----5-----5-----|--5-----5-----5-----5-----|
A||-----5-----5-----5-----5--|-----5-----5-----5-----5--|
E||--------------------------|--------------------------|

G||--------------------------|--------------------------|
D||--------------------------|--------------------------|
A||--7-----7-----7-----7-----|--7-----7-----7-----7-----|
E||-----7-----7-----7-----7--|-----7-----7-----7-----7--|

G||--------------------------|--------------------------|
D||--------------------------|--------------------------|
A||--8-----8-----8-----8-----|--8-----8-----8-----8-----|
E||-----8-----8-----8-----8--|-----8-----8-----8-----8--|

G||--------------------------|
D||--------------------------|
A||--7-----7-----7-----7-----|
E||-----7-----7-----7-----7--|

Chorus Riff:
G||------------------------|---------------------------|
D||------------------5--6--|--7--------7----------7----|
A||--5-------5-------------|-------------7--7-------5--|
E||------------5--5--------|---------------------------|

G||------------------------|-------------------------|
D||------------------------|-------7---7-------7-----|
A||--7-------7-------7-----|-------------5--5-----4--|
E||------------7--7-----7--|----7--------------------|

Rest for one bar

Outro: Chorus Riff x2

G||------------------------|---------------------------|
D||------------------5--6--|--7--------7----------7----|
A||--5-------5-------------|-------------7--7-------5--|
E||------------5--5--------|---------------------------|

G||------------------------|-------------------------|
D||------------------------|-------7---7-------7-----|
A||--7-------7-------7-----|-------------5--5-----4--|
E||------------7--7-----7--|----7--------------------|
Song End

guest
Wanna post a correction for this tab? Suggest correction