Oops, an error
Loading. Please wait.
We have Chord Pro version of You Know Im No Good.
It's the closest thing you can get to the original song and it has interactive parts. Check out the tab »
×

You Know Im No Good bass

version 3
version 3

Whole song

  • Changing meta info at top of tab. No change to actual tab.

Interactive

622 views 6 this week
no commentswrite comment
1 2 3 4 5
2 more votes to show rating
add to favorites
×
Save as Personal and add changes to this tab that will be seen only by you. Learn more ›
×
You can save this tab as Personal to edit and correct it or add notes. All changes will be seen only by you. Learn more »
launch autoscroll
font size
0
reset
guitar tuner
edit
Autoscroll
slow
fast
+/-
esc
set tempo
stop
Author
Difficulty
About this tab version
Changing meta info at top of tab. No change to actual tab. Was this info helpful? Yes No
-------------------------------------------------------------------------------
                             YOU KNOW I'M NO GOOD - Amy Winehouse
-------------------------------------------------------------------------------
Tabbed by: Chris

Tuning: E Standard

This is a great bass line and the tab is as close as I can get it. I think the
fundamental of the kick is right in the middle of a lot of the lower notes played
so it was a little tricky working some of it out.




INTRO
G|---------------------------------|
D|------S-W-E-E-T---D-R-U-M-S------| X 4
A|---------------------------------|
E|---------------------------------|

G|---------------------------------|
D|---------------------------------| X 4 (pretty sure that shuffle on the 4th bar is
A|-5-------------5---------3---4---|      drums and not bass like most people play)
E|-----------------5---5-----------|


VERSE 1
G|---------------------------------|---------------------------------|
D|-----------------------------4---|-5-------------5---------5---6---|
A|-5-------------5---------5-------|-----------------5---5-----------|
E|-----------------5---5-----------|---------------------------------|

G|---------------------------------|---------------------------------|
D|-7-------------7---------7-------|---------------------------------|
A|-----------------7---7-------6---|-5-------------5-----------------|
E|---------------------------------|-----------------5---3---4---5---|

G|---------------------------------|---------------------------------|
D|-----------------------------4---|-5-------------5---------5---6---|
A|-5-------------5---------5-------|-----------------5---5-----------|
E|-----------------5---5-----------|---------------------------------|

G|---------------------------------|---------------------------------|
D|-7-------------7---------7-------|---------------------------------|
A|-----------------7---7-------6---|-5-------------5---------5-------|
E|---------------------------------|-----------------5---5-------5---|


PRE CHORUS 1
G|---------------------------------|---------------------------------|
D|---------------------------------|---------------------------------|
A|-----1---1-------1---1-------1---|-1-------1---1-------1---1-------|
E|-3-----------3-----------3-------|-----3-----------3-----------3---|

G|---------------------------------|---------------------------------|
D|---------------------------------|---------------------------------|
A|-7-------7-------7-------7-------|-7-------7-------7-------7-------|
E|-----7-------7-------7-------7---|-----7-------7-------7-------7---|

G|---------------------------------|---------------------------------|
D|---------------------------------|---------------------------------|
A|-8-------8-------8-------8-------|-8-------8-------8-------8-------|
E|-----8-------8-------8-------8---|-----8-------8-------8-------8---|

G|---------------------------------|---------------------------------|
D|---------------------------------|-7-------7-------7---------------|
A|-7-------7-------7-------7-------|-----7-------7-------7---7---7---|
E|-----7-------7-------7-------7---|---------------------------------|


CHORUS 1
G|---------------------------------|---------------------------------|
D|-----------------------------5---|-7-------------7---------7-------|
A|-5-------------5---------5-------|-----------------7---7-------7---|
E|-----------------5---5-----------|---------------------------------|

G|---------------------------------|---------------------------------|
D|---------------------------------|-----7---------------------------|
A|-7-------------7---------7---6---|-----------------4---5---7---6---|
E|-----------------7---7-----------|-5-------------------------------|

G|---------------------------------|---------------------------------|
D|-----------------------------7---|-7-------------7---------7-------|
A|-5-------------5---------5-------|-----------------7---7-------5---|
E|-----------------5---5-----------|---------------------------------|

G|---------------------------------|---------------------------------|
D|---------------------------------|---------7-----------------------|
A|-7-------------7---------7-------|---------------4-5-4-5---6---7---|
E|-----------------7---7-------7---|-5-------------------------------|

Sounds like some of those notes in that last bar of the chorus may be
partially muted


DRUM BREAK
G|---------------------------------|---------------------------------|
D|-------------D-R-U-M-------------|---------------------------------|
A|---------------------------------|------------B-R-E-A-K------------|
E|---------------------------------|---------------------------------|


VERSE 2
G|---------------------------------|---------------------------------|
D|-----------------------------4---|-5-------------5---------5---6---|
A|-5-------------5---------5-------|-----------------5---5-----------|
E|-----------------5---5-----------|---------------------------------|

G|---------------------------------|---------7---7--77-77----7-5-----|
D|-7-------------7---7-----7-------|-----------------------------7---|
A|-----------------7---7-------6---|-5---5---------------------------|
E|---------------------------------|---------------------------------|

G|---------------------------------|---------------------------------|
D|-----------------------------4---|-5-------------5---5-----5---6---|
A|-5-------------5---------5-------|-----------------5---5-----------|
E|-----------------5---5-----------|---------------------------------|

G|---------------------------------|---------------------------------|
D|-7-------------7---------7-------|---------------------------------|
A|-----------------7---7-------6---|-5---5---------5-----------------|
E|---------------------------------|-----------------3---4---5---4---|


PRE CHORUS 2
G|---------------------------------|---------------------------------|
D|---------------------------------|---------------------------------|
A|-----1---1-------1---1-------1---|-1-------1---1-------1---1---3/--|
E|-3-----------3-----------3-------|-----3-----------3---------------|

G|---------------------------------|---------------------------------|
D|---------------------------------|---------------------------------|
A|-7-------7-------7-------7-------|-7-------7-------7-------7-------|
E|-----7-------7-------7-------7---|-----7-------7-------7-------7---|

G|---------------------------------|---------------------------------|
D|---------------------------------|---------------------------------|
A|-8-------8-------8-------8-------|-8-------8-------8-------8-------|
E|-----8-------8-------8-------8---|-----8-------8-------8-------8---|

G|---------------------------------|---------------------------------|
D|---------------------------------|-----------------7-------7-------|
A|-7-------7-------7-------7-------|-------------7-------7-------7---|
E|-----7-------7-------7-------7---|---------------------------------|


CHORUS 2
G|---------------------------------|---------------------------------|
D|---------------------------------|-7-------------7---------7-------|
A|-5-------------5---------5-------|-----------------7---7-------6---|
E|-----------------5---5-------4---|---------------------------------|

G|---------------------------------|---------------------------------|
D|-----------------------------6---|-7-------7------77---7---7-5-----|
A|-7---7---------7---------7-------|-----------------------------6---|
E|-----------------7---7-----------|---------------------------------|

G|---------------------------------|---------------------------------|
D|-----------------------------6---|-7-------7-----7---------7-------|
A|-5-------------5---------5-------|-----------------7---6-------6---|
E|-----------------5---5-----------|---------------------------------|

G|---------------------------------|---------------------------------|
D|---------------------------------|---------------------------------|
A|-7-------------7---------7-------|-----------------6---7---7-5-----|
E|-----------------7---7-------6---|-----5---5----5--------------7---|


MIDDLE 8
G|---------------------------------|---------------------------------|
D|------S-W-E-E-T---D-R-U-M-S------|------S-W-E-E-T---D-R-U-M-S------|
A|------S-A-S-S-Y---H-O-R-N-S------|------S-A-S-S-Y---H-O-R-N-S------|
E|---------------------------------|---------------------------------|

G|---------------------------------|---------------------------------|
D|------S-W-E-E-T---D-R-U-M-S------|-----------------7---7-------7---|
A|------S-A-S-S-Y---H-O-R-N-S------|---------------5---5---5-0-------|
E|---------------------------------|---------------------------------|

G|---------------------------------|---------------------------------|
D|-----------------------------4---|-7-------7-----7---------7-------|
A|-5-------5-----5---5-----5-------|-----------------7---7-------5---|
E|-----------------5---5-----------|---------------------------------|

G|---------------------------------|---------------------------------|
D|---------------------------------|---------5/7--5/7----------5/7---|
A|-7-------7-----7---------7-------|---------------------------------|
E|-----------------7---7-------7---|-5---5-------5-----5-5---5-------|


VERSE 3
G|---------------------------------|---------------------------------|
D|---------------------------------|---------------------------------|
A|---------------------------------|---------------------------------|
E|---------------------------------|---------------------------------|

G|---------------------------------|---------7---77--77--7---7-5-----|
D|---------------------------------|-----------------------------7---|
A|-----------------------------6---|-5-------------------------------|
E|---------------------------------|---------------------------------|

G|---------------------------------|---------------------------------|
D|-----------------------------7---|-5-------5-----5---------5---6---|
A|-5-------------5---5-----5-------|-----------------5---5-----------|
E|-----------------5---5-----------|---------------------------------|

G|---------------------------------|---------------------------------|
D|-7-------7-----7---------7-------|---------------------------------|
A|-----------------7---7-------6---|-5-------------5---------5-------|
E|---------------------------------|-----------------5---5-------5---|


PRE CHORUS 3
G|---------------------------------|---------------------------------|
D|---------------------------------|---------------------------------|
A|-----1---1-------1---1-------1---|-1-------1---1-------1---1---3/--|
E|-3-----------3-----------3-------|-----3-----------3---------------|

G|---------------------------------|---------------------------------|
D|---------------------------------|---------------------------------|
A|-7-------7-------7-------7-------|-7-------7-------7-------7-------|
E|-----7-------7-------7-------7---|-----7-------7-------7-------7---|

G|---------------------------------|---------------------------------|
D|---------------------------------|---------------------------------|
A|-8-------8-------8-------8-------|-8-------8-------8-------8-------|
E|-----8-------8-------8-------8---|-----8-------8-------8-------8---|

G|---------------------------------|---------------------------------|
D|---------------------------------|-------------------------10\-----|
A|-7-------7-------7-------7-------|---------------------------------|
E|-----7-------7-------7-------7---|---------------------------------|


CHORUS 3
G|---------------------------------|---------------------------------|
D|-----------------------------6---|-7-------7-----7---------5-------|
A|-5-------------5---------5-------|-----------------7---6-------6---|
E|-----------------5---5-----------|---------------------------------|

G|---------------------------------|---------------------------------|
D|-----------------------------6---|-7-------7-----7---------7-------|
A|-7-------7-----7---------7-------|-----------------7---7-------7---|
E|-----------------7---7-----------|---------------------------------|

G|---------------------------------|---------------------------------|
D|-----------------------------5---|-7-------7-----7---------7-------|
A|-5-------5-----5---------5-------|-----------------7---7-------7---|
E|-----------------5---5-----------|---------------------------------|

G|---------------------------------|---------------------------------|
D|-----------------------------6---|-7-------7-----5-7---7---7-5-----|
A|-7-------7-----7---------7-------|-----------------------------7---|
E|-----------------7---7-----------|---------------------------------|

G|---------------------------------|---------------------------------|
D|-----------------------------6---|-7-------7-----7---------7-------|
A|-5-------------5---------5-------|-----------------7---7-------6---|
E|-----------------5---5-----------|---------------------------------|

G|---------------------------------|---------------------------------|
D|---------------------------------|---------7---5-6-7---7---7-5-----|
A|-7-------7-----7---------7-------|-----------------------------7---|
E|-----------------7---7-------6---|-5---5---------------------------|

G|---------------------------------|---------------------------------|
D|-----------------------------6---|-7-------7-----7---------7-------|
A|-5-------------5---------5-------|-----------------7---7-------6---|
E|-----------------5---5-----------|---------------------------------|

G|---------------------------------|---------------------------------|
D|-----------------------------6---|-7-------------------------------|
A|-7-------7-----7---------5-------|---------------------------------|
E|-----------------7---7-----------|---------------------------------|

| /  slide up
| \  slide down
| h  hammer-on
| p  pull-off
| ~  vibrato
| +  harmonic
| x  Mute note
===============================================================================

            
            
Suggest correction
Creating personal tab
Creating personal tab
You can edit any tab online and save it as your Personal.

You can edit, replace or remove any tab part or add personal notes – all changes will be seen only by you.

Personal tabs can be accessed anytime from any device, even offline.
Learn more »
Give kudos to tab author, rate the tab!
1 2 3 4 5
comments
print report bad tab
guest
You may want to rate the tab now too:
select rating
Wanna post a correction for this tab? Suggest correction