Oops, an error
Loading. Please wait.

Bondz Kitzuna Bass Tab

4,501 views 1 this week
no commentswrite comment
1 2 3 4 5
excellent!
x 2
add to favorites
launch autoscroll
font size
0
reset
guitar tuner
Tab Pro tools
  • play this tab
  • loop segment
  • change instrument
  • show fretboard
  • metronome
Autoscroll
slow
fast
+/-
esc
set tempo
stop
Contributor
Difficulty
intermediate
#----------------------------------PLEASE NOTE---------------------------------#
#This file is the author's own work and represents their interpretation of the #
#song. You may only use this file for private study, scholarship, or research. #
#------------------------------------------------------------------------------##

                            BONDZ KITZUNA (Bassline)
                             As recorded by An Cafe
                       (From the 2006 Album MAGNYA CARTA)
                              (www.ancafe-web.com)


==Please note that my tabs are to be used as a rough guide only. You can figure the rest 
for yourself because it makes you a better player :)==

Words and Music by An Cafe
Transcribed by Alexander Joyce (Ravenex)

Bass (E A D G) - 'Kanon'

   main
                                                          1.,2.,3.
   4/4
    Gtr I
    E E E E E E E E   E E E E E E E E   E E E E E E E E   E E E E E E E E  4x
||------------------|-----------------|-----------------|------------------||
||o-----------------|-----------------|-----------------|-----------------o||
||o-----------------|-----------------|-------------2-3-|-5-5-x-5---5---5-o||
||--1-1-x-1---1---1-|-3-3-x-3---3---3-|-5-5-x-5---5-----|------------------||


                 Verse
  4.
  Q  Q  Q  Q      H    +E  E E E   H    +E  E E E   H    +E  E E E
|-------------||-----------------|----------------|----------------|
|-------------||o----------------|----------------|----------------|
|-7--5--3-----||o-0----(0)-3-3---|-0----(0)-3-3---|-0----(0)-3-3---|
|----------3--||---------------3-|--------------3-|--------------3-|


                   interlude 1
   Q  Q  Q  Q       E E E E E E E E   E E E E E E E E   E E E E E E E E
|----------------||-----------------|-----------------|-----------------|
|---------------o||-----------------|-----------------|-----------------|
|-/7--7--7--7\--o||-0-0-0-0-3-3-3-3-|-5-5-5-5-7-7-7-7-|-0-0-0-0-3-3-3-3-|
|----------------||-----------------|-----------------|-----------------|


  E E E E E E E E   E E E E E E E E   E E E E E E E E   E E E E E E E E
|-----------------|-----------------|-----------------|-----------------|
|-----------------|-----------------|-----------------|-----------------|
|-5-5-5-5-8-8-8-8-|-0-0-0-0-3-3-3-3-|-5-5-5-5-7-7-7-7-|-0-0-0-0---------|
|-----------------|-----------------|-----------------|---------3-3-3-3-|


                    Bridge
  E E E E +Q   Q     Q  E E +E  E E E   Q E E +E  E E E    Q  E E +E  E E E
|-----------------||------------------|------------------|-------------------|
|-----------------||------------------|------------------|-------------------|
|-----------------||-0--0-3-(3)-3-3-3-|------------------|-0--0-3-(3)-3-3-3--|
|-1-3-1-0-(0)--9\-||------------------|-1-1-3-(3)-3-3-3--|-------------------|


  Q  E E +E  E E E   Q  E E +E  E E E   Q  E E +E  E E E   Q  E E +E  E E E
|------------------|------------------|------------------|------------------|
|------------------|------------------|------------------|------------------|
|------------------|-0--0-3-(3)-3-3-3-|------------------|-0--0-3-(3)-3-3-3-|
|-3--3-1-(1)-1-1-1-|------------------|-1--1-3-(3)-3-3-3-|------------------|


                    Chorus                           Chorus pt.2
  E E E E E E Q      Q  Q  Q  E E   Q  E E Q  E E  4x E E E E E E E E
|----------------||---------------|----------------||-----------------|
|----------------||o--------------|---------------o||-----------------|
|----------------||o--------------|---------------o||-----------------|
|-1-1-1-1-1-1-3--||--5--3--1--x-x-|-3--x-x-5--x-x--||-1-1-1-1-1-1-1-1-|


  E E E E E E E E   E E E E E E E E   E E E E E E E E   E E E E E E E E
|-----------------|-----------------|-----------------|-----------------|
|-----------------|-----------------|-----------------|-----------------|
|-----------------|-0-0-0-0-0-0-0-0-|-5-5-5-5-5-5-5-5-|-----------------|
|-3-3-3-3-3-3-3-3-|-----------------|-----------------|-1-1-1-1-1-1-1-1-|


  E E E E E E E E   E E E E E E E E   S S S S S S S S S S S S S S S S
|-----------------|-----------------|----------------------------------||
|-----------------|-----------------|-7-7-7-7-7-7-7-7-7-5---5----------||
|-----------------|-0-0-0-0-0-0-0-0-|---------------------7---7-5------||
|-3-3-3-3-3-3-3-3-|-----------------|-----------------------------7-5--||


Duration Legend
---------------
W - whole; H - half; Q - quarter; E - 8th; S - 16th; T - 32nd; X - 64th; a - acciaccatura
+ - note tied to previous; . - note dotted; .. - note double dotted
Uncapitalized letters represent notes that are staccato (1/2 duration)
Irregular groupings are notated above the duration line
Duration letters will always appear directly above the note/fret number it represents the
duration for.  Duration letters with no fret number below them represent rests.  Multi-
bar rests are notated in the form Wxn, where n is the number of bars to rest for.  Low
melody durations appear below the staff

Tablature Legend
----------------
 h   - hammer-on
 p   - pull-off
 b   - bend
 pb  - pre-bend
 r   - bend release (if no number after the r, then release immediately)
 /\  - slide into or out of (from/to "nowhere")
 s   - legato slide
 S   - shift slide
  - natural harmonic
[n]  - artificial harmonic
n(n) - tapped harmonic
 ~   - vibrato
 tr  - trill
 T   - tap
 TP  - trem. picking
 PM  - palm muting
\n/  - tremolo bar dip; n = amount to dip
 \n  - tremolo bar down
 n/  - tremolo bar up
/n\  - tremolo bar inverted dip
 =   - hold bend; also acts as connecting device for hammers/pulls
 <>  - volume swell (louder/softer)
 x   - on rhythm slash represents muted slash
 o   - on rhythm slash represents single note slash

Misc Legend
-----------
 |  - bar
||  - double bar
||o - repeat start
o|| - repeat end
*|  - double bar (ending)
 :  - bar (freetime)
 $  - Segno
 &  - Coda
Tempo markers -  = BPM(8/16=s8/s16), where s8 = swing 8ths, s16 = swing 16ths


***************************************************************************************
* Generated using Power Tab Editor by Brad Larsen - http://powertab.guitarnetwork.org *
***************************************************************************************
comments
We did not receive enough feedback on this tab! Please rate:
print report bad tab
1 2 3 4 5
I want to post or [tab]
guest
You may want to rate the tab now too:
select rating
Please do not post tabs as comments. Select "correction" instead!