Oops, an error
Loading. Please wait.

Candyholic Tab

version 1
version 1

Whole song

Interactive

3,068 views 1 this week
no commentswrite comment
1 2 3 4 5
please rate
add to favorites
launch autoscroll
font size
0
reset
how to read this tab
guitar tuner
Tab Pro tools
  • play this tab
  • loop segment
  • change instrument
  • show fretboard
  • metronome
×
Best way to learn
"Candyholic"
Autoscroll
slow
fast
+/-
esc
set tempo
stop
Contributor
E--------------------------------------------------------------------|
B--------------------------------------------------------------------|
G---------------------------4-2------------------------------7-6-----|
D---------------------2-2------3-2-----------------------2-3----6-5--|
A-2-2---3---3---2-----0-0-------------2-2---3---3---2----0-1---------|
E-0-0---1---1---0---------------------0-0---1---1---0----------------|

E--------------------------------------------------------------------|
B--------------------------------------------------------------------|
G---------------------------4-2--------------------------------------|
D--------------------2-2-------3-2-----------------------2-3---------|
A-2-2---3---3---2----0-0--------------2-2---3---3----2---0-1---------|
E-0-0---1---1---0---------------------0-0---1---1----0---------------|

Repeat both twice.

E----------------------|
B-8-9-8-9--10-11-10-11-|
G----------------------|   X4.
D----------------------|
A----------------------|
E----------------------|

E----------------------------------------------------------------------|
B----------------------------------------------------------------------|
G----------------------------------------------------------------------|
D-7-7-7-5--5-5-5--9-9-9-7--7-7-7-7-7-7-5--5-5-5--9-9-9-7----11----11---|
A-5-5-5-3--3-3-3--7-7-7-5--5-5-5-5-5-5-3--3-3-3--7-7-7-5----9-----9----|
E----------------------------------------------------------------------|

E----------------------------------------------------------------------|
B----------------------------------------------------------------------|
G----------------------------------------------------------------------|
D-7-7-7-5--5-5-5--9-9-9-7--7-7-7-7-7-7-5--5-5-5--9-9-9-5---11-----11---|
A-5-5-5-3--3-3-3--7-7-7-5--5-5-5-5-5-5-3--3-3-3--7-7-7-5---9------9----|
E----------------------------------------------------------------------|

E----------------------|
B-8-9-8-9--10-11-10-11-|
G----------------------|   X4.
D----------------------|
A----------------------|
E----------------------|

E--------6---------------------------|
B------6-----------------------------|
G-------------8------6---6---6---6---|
D---8-----------8------6---6---6-----|  X3.
A-----------6------4-----------------|
E-6----------------------------------|

E--------------------------------------------------------------------|
B--------------------------------------------------------------------|
G---------------------------4-2------------------------------7-6-----|  X2.
D---------------------2-2------3-2-----------------------2-3----6-5--|
A-2-2---3---3---2-----0-0-------------2-2---3---3---2----0-1---------|
E-0-0---1---1---0---------------------0-0---1---1---0----------------|

E----------------------|
B-8-9-8-9--10-11-10-11-|
G----------------------|   X4.
D----------------------|
A----------------------|
E----------------------|

E----------------------------------------------------------------------|
B----------------------------------------------------------------------|
G----------------------------------------------------------------------|
D-7-7-7-5--5-5-5--9-9-9-7--7-7-7-7-7-7-5--5-5-5--9-9-9-7----11----11---|
A-5-5-5-3--3-3-3--7-7-7-5--5-5-5-5-5-5-3--3-3-3--7-7-7-5----9-----9----|
E----------------------------------------------------------------------|

E----------------------------------------------------------------------|
B----------------------------------------------------------------------|
G----------------------------------------------------------------------|
D-7-7-7-5--5-5-5--9-9-9-7--7-7-7-7-7-7-5--5-5-5--9-9-9-5---11-----11---|
A-5-5-5-3--3-3-3--7-7-7-5--5-5-5-5-5-5-3--3-3-3--7-7-7-5---9------9----|
E----------------------------------------------------------------------|

E--------------|
B--------------|
G--------------|
D-2--4--5--4---|
A-0--2--3--2---|
E--------------|

E--------6---------------------------|
B------6-----------------------------|
G-------------8------6---6---6---6---|
D---8-----------8------6---6---6-----|  X3.
A-----------6------4-----------------|
E-6----------------------------------|

E--------6-----------------------------------------------------------|
B------6-------------------------------------------------------------|
G-------------8---------6------4-------7-------4--------7--6---4-----|
D---8-----------8-------6---------5-------7-------5---------------5--|
A-----------6-----------4--------------------------------------------|
E-6------------------------------------------------------------------|

E-------------------------------------------------------|
B-------------------------------------------------------|
G-4------7-----4-------7--6-----4-4-4-4-----7-7-7-6-----|
D----5-----7------5-------------5-5-5-5-----7-7-7-7-----|
A-------------------------------------------------------|
E-------------------------------------------------------|

E-------------------------|
B-------------------------|
G-4-4-4-4-----7-7-7-6-----|  X7.
D-5-5-5-5-----7-7-7-7-----|
A-------------------------|
E-------------------------|

E----------------------------------------------------------------------|
B----------------------------------------------------------------------|
G----------------------------------------------------------------------|
D-7-7-7-5--5-5-5--9-9-9-7--7-7-7-7-7-7-5--5-5-5--9-9-9-5---11-----11---| X2.
A-5-5-5-3--3-3-3--7-7-7-5--5-5-5-5-5-5-3--3-3-3--7-7-7-5---9------9----|
E----------------------------------------------------------------------|

E--------6-----------------------------------------------------------|
B------6-------------------------------------------------------------|
G-------------8---------6------4-------7-------4--------7--6---4-----|
D---8-----------8-------6---------5-------7-------5---------------5--| X4.
A-----------6-----------4--------------------------------------------|
E-6------------------------------------------------------------------|

---

E---------------------------------------------------------------------|
B---------------------------------------------------------------------|
G---------X-8-X-8--X-6-X-6-X-6-X-6-X-8-X-8-X-8-X-8--6-6-6-6-6-6-6-6---|
D-X-8-X-8-X-8-X-8--x-6-X-6-X-6-X-6-X-8-X-8-X-8-X-8--6-6-6-6-6-6-6-6---|
A-X-8-X-8-------------------------------------------------------------|
E---------------------------------------------------------------------|

E--------6-----------------------------------------------------------|
B------6-------------------------------------------------------------|
G-------------8---------6------4-------7-------4--------7--6---4-----| X6.
D---8-----------8-------6---------5-------7-------5---------------5--|
A-----------6-----------4--------------------------------------------|
E-6------------------------------------------------------------------|

E-----------------------------------------------------------------------|
B-----------------------------------------------------------------------|
G-----------------------------------------------------------------------|
D-----------------------------------------------------------------------|
A-3-5-5-3-5-5-5-5---3-5-5-3-5-5-5-5---3-5-5-3-5-5-5-5---9-9-9-7-7-7-5-5-|
E-1-3-3-1-3-3-3-3---1-3-3-1-3-3-3-3---1-3-3-1-3-3-3-3---7-7-7-5-5-5-3-3-|

E--------------------------------------------------------------------------|
B--------------------------------------------------------------------------|
G-----------7-6------------------------------------------------------------|
D---------------5-6--------------------------------------------------------|
A----------------------7-7---5----5----3----3---5----5-5-5---7-7---5--5--3-|
E-1-1-1-1--------------5-5---3----3----1----1---3----3-3-3---5-5---3--3--1-|
comments
We did not receive enough feedback on this tab! Please rate:
print report bad tab
1 2 3 4 5
I want to post or [tab]
guest
You may want to rate the tab now too:
select rating
Please do not post tabs as comments. Select "correction" instead!