Oops, an error
Loading. Please wait.

Escapism Bass

version 1
version 1

Whole song

Interactive

by An Cafe
12,714 views 1 this week
2 commentsread comments
1 2 3 4 5
1 last vote to show rating
add to favorites
launch autoscroll
font size
0
reset
guitar tuner
Autoscroll
slow
fast
+/-
esc
set tempo
stop
Author
Difficulty
intermediate
Escapism
tuning: standard

recently i've been finding it difficult to find any antic cafe tabs. i've been searching
a long time and all i can find is a trail of people, complaining because they cant find
either. sure it's a foreign band, but they're so freaking awesome. so i thought "screw 
i'll do it myself."
so i'm now gonna figure out as many of their songs as i can by ear, and tab them all one
one. starting with this song "Escapism"

so her it is, as close as i can get to the real thing. hope you find it usefull ^__^

(intro)
G|----------------|----------------|-------------------------|
D|----------------|----------------|-------------------------|
A|7h9--/12-11-9\7-|7h9--14-12-11\7-|7h9--/12-11-9\7--7h9-9-9\|
E|----------------|----------------|-------------------------|

(pre-verse 1)
G|------------------------------|
D|------------------------------|
A|------------------------------|
E|2-2-0-2--2-0-2--2-0-2-/5-5-4-4| (x4)

G|-----------------------|
D|-----------------------|
A|-----------------------|
E|2-2-0-2-5h4-2-0-5h4-2-0|

(verse 1)
G|-----------------------|-------------------------|
D|-----------------------|-----------------------16|
A|----------------9-9-9--|-----------------9-9/16--|
E|2-2-2-5--9--5--9-9-9-9-|-2-2-2-5--9--5--9-9------| (x2)

G|------------------------------|
D|------------------------------|
A|------------------------------|
E|2-2-0-2--2-0-2--2-0-2-/5-5-4-4| (x4)

G|-----------------------|-------------------------|
D|-----------------------|-----------------------16|
A|----------------9-9-9--|-----------------9-9/16--|
E|2-2-2-5--9--5--9-9-9-9-|-2-2-2-5--9--5--9-9------| (x2)

(post-verse 1)
G|------------------------------------------|
D|------------------------------------------|
A|------------------------------------------|
E|5(x8)-4(x8)--2-2-0-2--2-0-2--2-0-2-0-0-0-0| (x3)

G|---------------------------------|
D|---------------------------------|
A|---------------------------------|
E|5(x8)-4(x8)--2-2-0-2--2-0-2-4-5~~|

(chorus 1)
G|--------------------|--------------------|--------------------|-------------------|
D|--------------------|-----------------7-9|--------------------|----------------4-6|
A|----------4444/77777|----------4444/77-7-|----------4444/77777|----------444444-4-|
E|5555\44444----------|5555\44444----------|5555\44444----------|5555\44444---------|

G|--------------------|--------------------|--------------------|----------------------|
D|--------------------|-----------------7-9|--------------------|-----------------6-4-2|
A|----------4444/77777|----------4444/77-7-|----------4444/77777|----------444444------|
E|5555\44444----------|5555\44444----------|5555\44444----------|5555\44444------------|

G|----------------------|----------------------|-------------------|-------------|
D|-----------------9-7--|---------------7------|-------------------|-------------|
A|----------4--4-7-----7|---------444-7---7-4--|----------4--4-7--7|-------------|
E|5--5-4--4-------------|5555-4--4------------9|5--5-4--4----------|5--5-4--4-4~~|

(pre-verse 2)
G|------------------------------------|
D|------------------------------------|
A|------------------------------------|
E|2-2/\-2-2-0-2--2-0-2--2-0-2-/5-5-4-4| (x3)

(verse 2)
G|-----------------------|-------------------------|
D|-----------------------|-----------------------16|
A|----------------9-9-9--|-----------------9-9/16--|
E|2-2-2-5--9--5--9-9-9-9-|-2-2-2-5--9--5--9-9------| (x2)

(post verse 2)
G|------------------------------------------|
D|------------------------------------------|
A|------------------------------------------|
E|5(x8)-4(x8)--2-2-0-2--2-0-2--2-0-2-0-0-0-0| (x3)

G|---------------------------------|
D|---------------------------------|
A|---------------------------------|
E|5(x8)-4(x8)--2-2-0-2--2-0-2-4-5~~|

(bridge)
G|---------------------------------|-------------------------------------------|
D|----------------------9-----9----|----------------6---------------9---7---5--|
A|------------4(x8)-7-7---7-7---7--|------------4-4---4-4-4-4-4-7-7---7---7---7|
E|5(x8)-4(x8)---------------------7|5(x8)-4(x8)--------------------------------|

G|-----------------------|---------------|
D|-----------------------|---------------|
A|------------4(x8)-7(x8)|------------4~~|
E|5(x8)-4(x8)------------|5(x8)-4(x8)----|

(chorus 2)
G|--------------------|--------------------|--------------------|-------------------|
D|--------------------|-----------------7-9|--------------------|----------------4-6|
A|----------4444/77777|----------4444/77-7-|----------4444/77777|----------444444-4-|
E|5555\44444----------|5555\44444----------|5555\44444----------|5555\44444---------|

G|--------------------|-------------------------|--------------------|
D|--------------------|-------------------------|--------------------|
A|----------4444/77777|----------4444/77-14-----|----------4444/77777|
E|5555\44444----------|5555\44444-----------12-7|5555\44444----------|

G|-----------------------|
D|-----------------------|
A|----------444444/12--12|
E|5555\44444---------12--|

G|--------------------|--------------------|-------------|-------------------|
D|--------------------|--------------------|-------------|-------------------|
A|----------4444/77777|----------4444/77777|-----4-7--7/\|----------444444444|
E|5555\44444----------|5555\44444----------|5-4----------|5555\44444---------|

(outro)
G|--------------------|--------------------|------------------------------|
D|--------------------|-----------------9-9|------------------------------|
A|----------4444/77777|----------4444/77-7-|12-12-12-1211-12-11\----------|
E|5555/44444----------|5555\44444----------|------------------------------|

G|--------------|
D|--------------|
A|--------4/9\-4|
E|5555\444------|

there you have it. remember i've written this in relation to how it is easiest to play,
in relation to how kanon play's it. my aim is not to create an army of people who look
kanon, but to create an army of people who SOUND like him.
if you have any an cafe tabs you'd like me to figure out or if you have any comments,
me at: magami_3@hotmail.com
Suggest correction
Give kudos to tab author, rate the tab!
1 2 3 4 5
comments
print report bad tab
2 comments total.
0 reply
FRantic_Cafe 10 Oct 06, 2008 07:55 PM

we need more people like you!!!

0 reply
antiocharrow 10 Jan 14, 2009 08:24 AM

This is perfect!!!! Thank you!

guest
You may want to rate the tab now too:
select rating
Wanna post a correction for this tab? Suggest correction