Oops, an error
Loading. Please wait.

Kakusei Heroism Tab

version 1
version 1

Whole song

Interactive

8,032 views 12 this week
no commentswrite comment
1 2 3 4 5
please rate
add to favorites
launch autoscroll
font size
0
reset
how to read this tab
guitar tuner
Tab Pro tools
  • play this tab
  • loop segment
  • change instrument
  • show fretboard
  • metronome
×
Best way to learn
"Kakusei Heroism"
Autoscroll
slow
fast
+/-
esc
set tempo
stop
Contributor
Tabbed By Dante912
song: An Cafe - Kakusei Heroism (the hero withought a name)
standard tuning (EADGBe)

*=harmonise
^=bend

Sorry guys but you'll have to listen to the song to find the strumming


e|-----------------------------|---------------------------------|
B|-----------------------------|---------------------------------|
G|---------7------9-9-9/11/9---|--------7------9-9-9-------------|
D|--9-7-9--7-9-7--9-9-9/11/9---|--9-7-9-7-9-7--9-9-9--7-8-9------|
A|--9-7-9----9-7---------------|--9-7-9---9-7---------7-8-9------|
E|-----------------------------|---------------------------------|

e|----------------------------|-----------------------------|
B|----------------------------|-----------------------------|
G|--------7------9-9-9/11/9---|--------7--------------------|
D|--9-7-9-7--9-7-9-9-9/11/9---|--9-7-9-7--9-7--7-7-7-6-7-6--|
A|--9-7-9----9-7--------------|--9-7-9----9-7--7-7-7-6-7-6--|
E|----------------------------|-----------------------------|

e|-------------------|
B|-------------------|
G|-----------7--6----|
D|--9--5--7--7--6----|
A|--9--5--7--5--4----|
E|--7--3--5----------|

e|-----------------|
B|-----------------|
G|-----------7--6--|
D|--9--5--7--7--6--|
A|--9--5--7--5--4--|
E|--7--3--5--------|

e|--------------------------|---------------------------|
B|--------------------------|---------------------------|
G|--------7------9-9-9/11/9-|--------7-----9-9-9--------|
D|--9-7-9-7-9-7--9-9-9/11/9-|--9-7-9-7-9-7-9-9-9-7-8-9--|
A|--9-7-9---9-7-------------|--9-7-9---9-7-------7-8-9--|
E|--------------------------|---------------------------|

e|---------------------------|-------------------------|
B|---------------------------|-------------------------|
G|--------7-----9-9-9/11/9---|--------7--------7-------|
D|--9-7-9-7-9-7-9-9-9/11/9---|--9-7-9-7-9-7--9-7-7-9---|
A|--9-7-9---9-7--------------|--9-7-9---9-7--9---7-9---|
E|---------------------------|-------------------------|

e|------------------------------|
B|------------------------------|
G|------------------------------|
D|--7--9---5--7--4--9---5--7--9-|
A|--7--9---5--7--4--9---5--7--9-|
E|--5--7---3--5--2--7---3--5--7-|

e|-----------------------------------------------|
B|-----------------------------------------------|
G|---------9^-9^-8-7-----------------------------|
D|--7--9-----------------5--7--4--9---5--7--4--8-|
A|--7--9-----------------5--7--4--9---5--7--4--8-|
E|--5--7-----------------3--5--2--7---3--5--2--6-|

e|----------------|
B|----------------|
G|-----------7--6-|
D|--9--5--7--7--6-|
A|--9--5--7--5--4-|
E|--7--3--5-------|

e|----------------|
B|----------------|
G|-----------7--6-|
D|--9--5--7--7--6-|
A|--9--5--7--5--4-|
E|--7--3--5-------|

e|---------------------------|
B|---------------------------|
G|---------------------------|
D|--9-9--12-12--14-14--12-12-|
A|--9-9--12-12--14-14--12-12-|
E|--7-7--10-10--12-12--10-10-|

e|---------------------------|
B|---------------------------|
G|---------------------------|
D|--9-9--12-12--14-14--12-12-|
A|--9-9--12-12--14-14--12-12-|
E|--7-7--10-10--12-12--10-10-|

e|---------------------------|
B|---------------------------|
G|---------------------------|
D|--9-9--12-12--14-14--12-12-|
A|--9-9--12-12--14-14--12-12-|
E|--7-7--10-10--12-12--10-10-|

e|-----------|
B|-----------|
G|-----------|
D|--5--7--9--|
A|--5--7--9--|
E|--3--5--7--|

e|--------------------------|---------------------------|
B|--------------------------|---------------------------|
G|--------7------9-9-9/11/9-|--------7-----9-9-9--------|
D|--9-7-9-7-9-7--9-9-9/11/9-|--9-7-9-7-9-7-9-9-9-7-8-9--|
A|--9-7-9---9-7-------------|--9-7-9---9-7-------7-8-9--|
E|--------------------------|---------------------------|

e|--------------------------|-------------|
B|--------------------------|-------------|
G|--------7------9-9-9/11/9-|-------------|
D|--9-7-9-7-9-7--9-9-9/11/9-|--9-7-5-4-9--|
A|--9-7-9---9-7-------------|--9-7-5-4-9--|
E|--------------------------|--7-5-3-2-7--|

e|---------------------------|
B|---------------------------|
G|---------------------------|
D|--5--7--4--9---5--7--4--8--|
A|--5--7--4--9---5--7--4--8--|
E|--3--5--2--7---3--5--2--6--|

e|----------------|
B|----------------|
G|-----------7--6-|
D|--9--5--7--7--6-|
A|--9--5--7--5--4-|
E|--7--3--5-------|

e|----------------|
B|----------------|
G|-----------7--6-|
D|--9--5--7--7--6-|
A|--9--5--7--5--4-|
E|--7--3--5-------|

e |--------------------------|
B|---------------------------|
G|---------------------------|
D|--9-9--12-12--14-14--12-10-|
A|--9-9--12-12--14-14--12-10-|
E|--7-7--10-10--12-12--10-10-|

e |--------------------------|
B|---------------------------|
G|---------------------------|
D|--9-9--12-12--14-14--12-10-|
A|--9-9--12-12--14-14--12-10-|
E|--7-7--10-10--12-12--10-10-|

e|----------|
B|----------|
G|----------|
D|--5--7--9-|
A|--5--7--9-|
E|--3--5--7-|

e|------------------------------------|
B|-7*-7-------------------/10-8-7-----|
G|-------9-7--9-7-7-6-7------------7--|
D|------------------------------------|
A|------------------------------------|
E|------------------------------------|

e|---------------------------|
B|---------------------------|
G|-----------7--9--7---------|
D|--9--7--9--7--9--7--9--7---|
A|--9--7--9-----------9--7---|
E|---------------------------|

e|-----------------------------------|
B|-----------------------------------|
G|-----------------------------------|
D|-11--9--7--9--7--6--7--6--7--6-----|
A|--9--7--5--7--5--4--5--4--5--4--6--|
E|--------------------------------4--|

e|--------------------------------------------------14^--|
B|-------14--15p14--17p14--15p14--14--15p14--17p14-------|
G|--14---------------------------------------------------|
D|-------------------------------------------------------|
A|-------------------------------------------------------|
E|-------------------------------------------------------|

e|----------------|
B|----------------|
G|-----------7--6-|
D|--9--5--7--7--6-|
A|--9--5--7--5--4-|
E|--7--3--5-------|

e|----------------|
B|----------------|
G|-----------7--6-|
D|--9--5--7--7--6-|
A|--9--5--7--5--4-|
E|--7--3--5-------|

e|---------------------------|
B|---------------------------|
G|---------------------------|
D|--9-9--12-12--14-14--12-12-|
A|--9-9--12-12--14-14--12-12-|
E|--7-7--10-10--12-12--10-10-|

e|-----------|
B|-----------|
G|-----------|
D|--5--7--9--|
A|--5--7--9--|
E|--3--5--7--|

e|----------------|
B|----------------|
G|-----------7--6-|
D|--9--5--7--7--6-|
A|--9--5--7--5--4-|
E|--7--3--5-------|

e|----------------|
B|----------------|
G|-----------7--6-|
D|--9--5--7--7--6-|
A|--9--5--7--5--4-|
E|--7--3--5-------|

e|---------------------------|
B|---------------------------|
G|---------------------------|
D|--9-9--12-12--14-14--12-12-|
A|--9-9--12-12--14-14--12-12-|
E|--7-7--10-10--12-12--10-10-|

e|---------------------------|
B|---------------------------|
G|---------------------------|
D|--9-9--12-12--14-14--12-12-|
A|--9-9--12-12--14-14--12-12-|
E|--7-7--10-10--12-12--10-10-|

e|---------------------------|
B|---------------------------|
G|---------------------------|
D|--9-9--12-12--14-14--12-12-|
A|--9-9--12-12--14-14--12-12-|
E|--7-7--10-10--12-12--10-10-|

e|-----------|
B|-----------|
G|-----------|
D|--5--7--9--|
A|--5--7--9--|
E|--3--5--7--|

e|--------------------------|--------------------------|
B|--------------------------|--------------------------|
G|--------7------9-9-9/11/9-|--------7-----9-9-9-------|
D|--9-7-9-7-9-7--9-9-9/11/9-|--9-7-9-7-9-7-9-9-9-7-8-9-|
A|--9-7-9---9-7-------------|--9-7-9---9-7-------7-8-9-|
E|--------------------------|--------------------------|

e|--------------------------|--------------------------|
B|--------------------------|--------------------------|
G|--------7------9-9-9/11/9-|--------7-----9-9-9-------|
D|--9-7-9-7-9-7--9-9-9/11/9-|--9-7-9-7-9-7-9-9-9-7-8-9-|
A|--9-7-9---9-7-------------|--9-7-9---9-7-------7-8-9-|
E|--------------------------|--------------------------|
comments
We did not receive enough feedback on this tab! Please rate:
print report bad tab
1 2 3 4 5
I want to post or [tab]
guest
You may want to rate the tab now too:
select rating
Please do not post tabs as comments. Select "correction" instead!