Oops, an error
Loading. Please wait.

Maple Gunman Bass Tab

version 1
version 1

Whole song

Interactive

3,962 views 1 this week
no commentswrite comment
1 2 3 4 5
1 last vote to show rating
add to favorites
launch autoscroll
font size
0
reset
guitar tuner
Autoscroll
slow
fast
+/-
esc
set tempo
stop
Help us to improve Ultimate-Guitar.com Take our survey!
×
Author
Difficulty
advanced
Maple Gunman

ok, next up is maple gunman. although its a simple bassline its extremly dificult to 
as its done REALLY quickly.
a few tips: play this one standing up, u have more room to drop your arm that way. when 
the verse, play the second notes as u bring ur arm up. that way u dont hav to go so 
(i think thats what kanon does anyway.)
its note perfect but its pretty damn close. enjoy ^__^

(intro)
G|---------------|
D|---------------|
A|------3--------|
E|5-3-5---5-3-0-3| (X3)

G|---------------------|
D|---------10----------|
A|12-10-12----12-10----|
E|------------------12\|

G|----------------|----------------|
D|-7-7-7-7-7-7-7-7|-3-3-3-3-5-5-5-5|
A|----------------|----------------|
E|5-5-5-5-5-5-5-5-|1-1-1-1-3-3-3-3-| (X2)

G|-------|
D|-------|
A|----5-7|
E|5-7----|

(verse 1)
G|--------|
D|-7-7-7-7|
A|--------|
E|5-5-5-5-| (X4)

G|--------|-5-5-5-5|--------|--------|
D|-7-7-7-7|--------|-3-3-3-3|-5-5-5-5|
A|--------|3-3-3-3-|--------|--------|
E|5-5-5-5-|--------|1-1-1-1-|3-3-3-3-|

G|----------------|----------------|
D|-7-7-7-7-7-7-7-7|-3-3-3-3-5-5-5-5|
A|----------------|----------------|
E|5-5-5-5-5-5-5-5-|1-1-1-1-3-3-3-3-| (X2)

G|--------|
D|-7-7-7-7|
A|--------|
E|5-5-5-5-| (X4)

G|--------|-5-5-5-5|--------|--------|
D|-7-7-7-7|--------|-3-3-3-3|-5-5-5-5|
A|--------|3-3-3-3-|--------|--------|
E|5-5-5-5-|--------|1-1-1-1-|3-3-3-3-|

G|--------|--------|--------|
D|--------|--------|-7-7-7-7|
A|--------|7-7-7-7-|--------|
E|5-------|--------|5-5-5-5-| (x2)

G|---------|
D|---------|
A|--7-----3|
E|5---5p3--|

(chorus 1)
G|---------------|
D|---------------|
A|---------------|
E|5-5-1-1-3-3-8-7|(X4)

G|----|---------------|---------------------|
D|----|---------------|---------10----------|
A|----|------3--------|12-10-12----12-10----|
E|5~~~|5-3-5---5-3-0-3|------------------12\|

(pre-verse)
G|----------------|----------------|
D|-7-7-7-7-7-7-7-7|-3-3-3-3-5-5-5-5|
A|----------------|----------------|
E|5-5-5-5-5-5-5-5-|1-1-1-1-3-3-3-3-|

G|----------------|-----------------|
D|-7-7-7-7-7-7-7-7|-3-3-3-3-5--5--5-|
A|----------------|-----------------|
E|5-5-5-5-5-5-5-5-|1-1-1-1---33-33-3|

(verse 2)
G|--------|
D|-7-7-7-7|
A|--------|
E|5-5-5-5-| (X4)

G|--------|-5-5-5-5|--------|--------|
D|-7-7-7-7|--------|-3-3-3-3|-5-5-5-5|
A|--------|3-3-3-3-|--------|--------|
E|5-5-5-5-|--------|1-1-1-1-|3-3-3-3-|

G|--------|--------|--------|
D|--------|--------|-7-7-7-7|
A|--------|7-7-7-7-|--------|
E|5-------|--------|5-5-5-5-| (x2)

G|---------|
D|---------|
A|7h5---3-5|
E|---5h3---|

(chorus 2)
G|---------------|
D|---------------|
A|---------------|
E|5-5-1-1-3-3-8-7|(X4)

G|----|------|---------------------------|
D|----|------|10101010-------------------|
A|----|7/12~~|--------1212101010101212---|
E|5~~~|------|------------------------10\|

(bridge)
G|----------------|--------------|
D|----------------|--------------|
A|----------------|--------------|
E|5555555511113333|55555555111133|

G|----------------|----------------|
D|----------------|----------------|
A|----------------|----------------|
E|5555555511113333|5555555555778899|

(solo)
G|----------------|----------------|
D|----------------|----------------|
A|--------3333----|------------3355|
E|11113333----5555|111133335577----|

G|----------------|-----------------|
D|----------------|-----------------|
A|--------3333----|----333333335~~~~|
E|11113333----5555|1----------------|

G|----------------|
D|----------------|
A|----------------|
E|5-5-5-5-55-5-7-8|

(chorus 3 and outro)
G|---------------|
D|---------------|
A|---------------|
E|5-5-1-1-3-3-8-7|(X12)

G|----|------------------|
D|----|------------------|
A|----|7/12~~~-----------|
E|5~~~|-------5-5-5-5555\|

dont forget to email me any requests. i dont know the entire discography by heart so if 
a specific song u want to learn let me know and ill tab it:
magami_3@hotmail.com
Suggest correction
Give kudos to tab author, rate the tab!
1 2 3 4 5
comments
print report bad tab
guest
You may want to rate the tab now too:
select rating
Wanna post a correction for this tab? Suggest correction