Oops, an error
Loading. Please wait.

My Heart Leaps For C Tab

3,767 views 1 this week
no commentswrite comment
1 2 3 4 5
please rate
add to favorites
launch autoscroll
font size
0
reset
how to read this tab
guitar tuner
Autoscroll
slow
fast
+/-
esc
set tempo
stop
Help us to improve Ultimate-Guitar.com Take our survey!
×
Author
Difficulty
intermediate
MY HEART LEAPS FOR C


song by An Cafe

tabbed by Squall

i´ve searched all the internet to find this tab,and i´ve didin´t find it...
so i did it by ear,and tabbed it to help who wants to play this song =)

its the first time i play an song by ear,so can be some mistakes,but its very next 
to the real song!

e|------------------------------|
B|------------------------------|    
G|--------7----9----------------|     
D|--4-----7----9----------------|  
A|--4-----5----7----------------|
E|--2---------------------------| 4X


       P.M.   P.M.      
e|-----------------------------------------|
B|-----------------------------------------|    
G|----------7-7-----------9-9-9------------|     
D|--4--4----7-7-----------9-9-9------------|  
A|--4--4----5-5------5/7--7-7-7------------|
E|--2--2-----------------------------------| 2x




e|------------------------------------------------|
B|------------------------------------------------|    
G|------12p11---------------7--9--7--7-7-7--9--7--|     
D|------------12---------/7-7--9--7--7-7-7--9--7--|  
A|--12-----------12-------------------------------|
E|--10--------------------------------------------|


       let the notes ring.
e|-------------------------------------|
B|------3------3-------3---------------|    
G|-----4-4----4-4-----4-4----6---------|     
D|----4---4--4---4---4---4---6---------|  
A|---2------0----------------4---------|
E|-----------------4-------------------|

CHORUS

e|----------------------------------------------|
B|----12--14------------------------------------|    
G|----11--13----------8----------------8--------|     
D|------------/8--11----11-11-11-11-11---11-----|  
A|----------------------------------------------|
E|----------------------------------------------|



e|------------------------------------------|
B|--12-14-----------------------------------|    
G|--11-13----------------------8-8-10-10----|     
D|---------/8-8-6-11-8-8-11-11--------------|  
A|------------------------------------------|
E|------------------------------------------|

im not sure about this part.

e|-------------------------------------------------------|
B|-------------------------------------------------------|    
G|-11-11--10---10--10----8--8--10--10--11-11---8--8------|     
D|-------------------------------------------------------|  
A|-9--9---8----8---8-----6--6--8---8---9--9----6--6------|
E|-------------------------------------------------------|



e|------------------------------------------------------------|
B|--------------------------------------------------12----11--|    
G|-----------8-----------------10--------------8-------11-----|     
D|---/8--11-----11---11-11-11-----11-----8--11----------------|  
A|------------------------------------------------------------|
E|------------------------------------------------------------|


            P.M.         its wrong,but sounds ok!
e|--------------------------------------------------|
B|--------------------------------------------------|    
G|--------------------------------------------------|     
D|--4-------4-------2/4/2---------------------------|  
A|--4-------4-------2/4/2---------------------------|
E|--2-------2---------------------------------------|



now, all along this verse, do this 


e|----------------------------------------------------|
B|----------------------------------------------------|    
G|----------------------------------------------------|     
D|---2/4/2-2/4/2-----2/4/2-2/4/2----------------------|  
A|---2/4/2-2/4/2-----2/4/2-2/4/2----------------------|
E|----------------------------------------------------|



e|------------------------------------------------|
B|------------------------------------------------|    
G|------12p11---------------7--9--7--7-7-7--9--7--|     
D|------------12---------/7-7--9--7--7-7-7--9--7--|  
A|--12-----------12-------------------------------|
E|--10--------------------------------------------|



e|-------------------------------------|
B|------3------3-------3---------------|    
G|-----4-4----4-4-----4-4----6---------|     
D|----4---4--4---4---4---4---6---------|  
A|---2------0----------------4---------|
E|-----------------4-------------------|



CHORUS

e|----------------------------------------------|
B|----12--14------------------------------------|    
G|----11--13----------8----------------8--------|     
D|------------/8--11----11-11-11-11-11---11-----|  
A|----------------------------------------------|
E|----------------------------------------------|



e|------------------------------------------|
B|--12-14-----------------------------------|    
G|--11-13----------------------8-8-10-10----|     
D|---------/8-8-6-11-8-8-11-11--------------|  
A|------------------------------------------|
E|------------------------------------------|


e|-------------------------------------------------------|
B|-------------------------------------------------------|    
G|-11-11--10---10--10----8--8--10--10--11-11---8--8------|     
D|-------------------------------------------------------|  
A|-9--9---8----8---8-----6--6--8---8---9--9----6--6------|
E|-------------------------------------------------------|



e|------------------------------------------------------------|
B|--------------------------------------------------12----11--|    
G|-----------8-----------------10--------------8-------11-----|     
D|---/8--11-----11---11-11-11-----11-----8--11----------------|  
A|------------------------------------------------------------|
E|------------------------------------------------------------|


 SOLO

e|----------------------------------------------------------|
B|-----/7---7/9---/9----9/11---/7----7/9---12^12-11---------|    
G|--------8----------10-----------8-------------------------|     
D|----------------------------------------------------------|  
A|----------------------------------------------------------|
E|----------------------------------------------------------|



e|-------------------------------------------------------------|
B|-----/7---7/9---/9----9/11-----------------------------------|    
G|--------8----------10----------------------11-13-11-10-------|     
D|------------------------------/11-11-11-11-------------13-11-|  
A|-------------------------------------------------------------|
E|-------------------------------------------------------------|



e|-11---11-------------------------------------------------------------|
B|-14^--14^^--14--11-12-14-----------------------14-12------11--12--14-| 
G|-------------------------11-13-11-10-11---13--------15---------------|
D|---------------------------------------------------------------------|  
A|---------------------------------------------------------------------|
E|---------------------------------------------------------------------|



e|-----14p13h14p13h--16---14p13h14p13h--18-|
B|-----------------------------------------|
G|-----------------------------------------|
D|-----------------------------------------|
A|-----------------------------------------|
E|-----------------------------------------|





e|---14p13h14p13h--16-14p13h14p13h----16--14--13---14-14-14^-14---|
B|----------------------------------------------------------------|    
G|----------------------------------------------------------------|     
D|----------------------------------------------------------------|  
A|----------------------------------------------------------------|
E|----------------------------------------------------------------|

CHORUS

e|----------------------------------------------|
B|----12--14------------------------------------|    
G|----11--13----------8----------------8--------|     
D|------------/8--11----11-11-11-11-11---11-----|  
A|----------------------------------------------|
E|----------------------------------------------|



e|------------------------------------------|
B|--12-14-----------------------------------|    
G|--11-13----------------------8-8-10-10----|     
D|---------/8-8-6-11-8-8-11-11--------------|  
A|------------------------------------------|
E|------------------------------------------|


e|-------------------------------------------------------|
B|-------------------------------------------------------|    
G|-11-11--10---10--10----8--8--10--10--11-11---8--8------|     
D|-------------------------------------------------------|  
A|-9--9---8----8---8-----6--6--8---8---9--9----6--6------|
E|-------------------------------------------------------|



e|------------------------------------------------------------|
B|--------------------------------------------------12----11--|    
G|-----------8-----------------10--------------8-------11-----|     
D|---/8--11-----11---11-11-11-----11-----8--11----------------|  
A|------------------------------------------------------------|
E|------------------------------------------------------------|


OUTRO


e|------------------------------|
B|------------------------------|    
G|--------7----9----------------|     
D|--4-----7----9----------------|  
A|--4-----5----7----------------|
E|--2---------------------------| 4X



e|----------------|
B|----------------|    
G|-----7----------|     
D|-----7----------|  
A|-----5----------|
E|----------------| 5X
Suggest correction new What's this?
You can suggest a correction to this tab. Community and Mods will review your correction and vote to approve or reject it.
comments
We did not receive enough feedback on this tab! Please rate:
print report bad tab
1 2 3 4 5
guest
You may want to rate the tab now too:
select rating
Please do not post tabs as comments. Select "correction" instead!