Oops, an error
Loading. Please wait.

Nyappy In The World Tab

version 1
version 1

Whole song

Interactive

2,972 views 1 this week
no commentswrite comment
1 2 3 4 5
3 more votes to show rating
add to favorites
launch autoscroll
font size
0
reset
how to read this tab
guitar tuner
Autoscroll
slow
fast
+/-
esc
set tempo
stop
Help us to improve Ultimate-Guitar.com Take our survey!
×
Author
Band: An Cafe
Song: Nyappy in the World
Album: Shikisai Moment
Tuning: Standard (ebgdae)
Tabbed by: JD88

I think this is pretty correct, and sorry if you don't understand what I mean on some places ^^,

INTRO:

E|---------|--------|---------|---------|
B|---------|--------|---------|---------|
G|-5-------|--------|---------|-5-------|
D|-5-------|-7------|-5-------|-5-------|
A|-3-------|-7------|-5-------|-3-------|  x2
E|---------|-5------|-3-------|---------|

VERSE:

E|---------|--------|--------|--------|
B|---------|--------|--------|--------|
G|-5-------|--------|--------|--------|
D|-5-------|--------|--------|--------|
A|-3-------|--------|--------|--------|
E|---------|--------|--------|--------|

PRE-VERSE:

E|---------|---------|---------|---------|
B|---------|---------|---------|---------|
G|-5-------|---------|---------|-5-------|
D|-5-------|-7-------|-5-------|-5-------|
A|-3-------|-7-------|-5-------|-3-------|
E|---------|-5-------|-3-------|---------|

E|-------------|
B|-------------|
G|-5-5--5-5555-|
D|-5-5--5-5555-|
A|-3-3--3-3333-|
E|-------------|

VERSE:

E|---------|--------|--------|--------|
B|---------|--------|--------|--------|
G|-5-------|--------|--------|--------|
D|-5-------|--------|--------|--------|
A|-3-------|--------|--------|--------|
E|---------|--------|--------|--------|

E|-------------------|
B|-------------------|
G|-5-5-7-7-9-9-10-10-|
D|-5-5-7-7-9-9-10-10-|
A|-3-3-5-5-7-7--8-8--|
E|-------------------|

CHORUS:

E|---------|---------|---------|---------|
B|---------|---------|---------|---------|
G|---------|-5-5-5-5-|---------|---------|
D|-7-7-7-7-|-5-5-5-5-|-3-3-3-3-|-5-5-5-5-|
A|-7-7-7-7-|-3-3-3-3-|-3-3-3-3-|-5-5-5-5-|  x4
E|-5-5-5-5-|---------|-1-1-1-1-|-3-3-3-3-|

And after the chorus have been played twice, a second guitar starts playing this:

E|-------------------------|
B|-------------------------|
G|-------------------------|
D|-/7------------------7-5-|
A|----0-2-3-7-8-7-8-10-----|  x2
E|-------------------------|

E|-----------------|
B|-----------------|
G|-----7-5---------|
D|-7-7-7-5-5-5-6-7-|
A|-7-7-5-3-5-5-6-7-|  x2
E|-5-5-----3-3-4-5-|

PRE-VERSE:

E|---------|---------|---------|---------|
B|---------|---------|---------|---------|
G|-5-------|---------|---------|-5-------|
D|-5-------|-7-------|-5-------|-5-------|
A|-3-------|-7-------|-5-------|-3-------|
E|---------|-5-------|-3-------|---------|

E|-------------|
B|-------------|
G|-5-5--5-5555-|
D|-5-5--5-5555-|
A|-3-3--3-3333-|
E|-------------|

VERSE:

E|---------|--------|--------|--------|
B|---------|--------|--------|--------|
G|-5-------|--------|--------|--------|
D|-5-------|--------|--------|--------|
A|-3-------|--------|--------|--------|
E|---------|--------|--------|--------|

E|-------------------|
B|-------------------|
G|-5-5-7-7-9-9-10-10-|
D|-5-5-7-7-9-9-10-10-|
A|-3-3-5-5-7-7--8-8--|
E|-------------------|

CHORUS:

E|---------|---------|---------|---------|
B|---------|---------|---------|---------|
G|---------|-5-5-5-5-|---------|---------|
D|-7-7-7-7-|-5-5-5-5-|-3-3-3-3-|-5-5-5-5-|
A|-7-7-7-7-|-3-3-3-3-|-3-3-3-3-|-5-5-5-5-|  x4
E|-5-5-5-5-|---------|-1-1-1-1-|-3-3-3-3-|

And after the chorus have been played twice, a second guitar starts playing this:

E|-------------------------|
B|-------------------------|
G|-------------------------|
D|-/7------------------7-5-|
A|----0-2-3-7-8-7-8-10-----|  x2
E|-------------------------|

E|-----------------|
B|-----------------|
G|-----7-5---------|
D|-7-7-7-5-5-5-6-7-|
A|-7-7-5-3-5-5-6-7-|  x2
E|-5-5-----3-3-4-5-|

SOLO:

E|-------------------------------------------------|
B|-------------------------------------------------|
G|-------------------------------------------------|
D|-/7------------------7-5-/7------------------7-5-|
A|----0-2-3-7-8-7-8-10--------0-2-3-7-8-7-8-10-----|
E|-------------------------------------------------|

E|-----------------------------|
B|-----------------------------|
G|-----------------------------|
D|-7-5---7-5---7-5-------------|
A|-----7-----7-----7-5-7-7-5-7-|
E|-----------------------------|


E|-----------------------------------------------|
B|-----------------------------------------------|
G|-----------------------------------------------|
D|-7-5---7-5---7-5-------------5-7---------------|
A|-----7-----7-----7-5-7-7-5-7-------------------|
E|-----------------------------------------------|

PRE-CHORUS:
Starts when the last note of the solo get striked, or whatever it's called.. x]

E|-----------------|
B|-----------------|
G|-----7-5---------|
D|-7-7-7-5-5-5-6-7-|
A|-7-7-5-3-5-5-6-7-|  x2
E|-5-5-----3-3-4-5-|

E|-----------------|-----------|-----------|
B|-----------------|-----------|-----------|
G|-----5-3---------|-----7-5---|-7b--------|
D|-5-5-5-3-3-3-4-5-|-7-7-7-5-7-|-----------|
A|-5-5-3-1-3-3-4-5-|-7-7-5-3-7-|-----------|
E|-3-3-----1-1-2-3-|-5-5-----5-|-----------|

CHORUS:

E|---------|---------|---------|---------|
B|---------|---------|---------|---------|
G|---------|-5-5-5-5-|---------|---------|
D|-7-7-7-7-|-5-5-5-5-|-3-3-3-3-|-5-5-5-5-|
A|-7-7-7-7-|-3-3-3-3-|-3-3-3-3-|-5-5-5-5-|  x4
E|-5-5-5-5-|---------|-1-1-1-1-|-3-3-3-3-|

E|---------|
B|---------|
G|---------|
D|-5-------|
A|-5-------|
E|-3-------|

And after the chorus have been played twice, a second guitar starts playing this:

E|-------------------------|
B|-------------------------|
G|-------------------------|
D|-/7------------------7-5-|
A|----0-2-3-7-8-7-8-10-----|
E|-------------------------|

E|-------------------------------|
B|-------------------------------|
G|-------------------------------|
D|-/7------------------7-5-------|
A|----0-2-3-7-8-7-8-10-----------|
E|-------------------------------|

BRIDGE:

E|---------|---------|---------|---------|
B|---------|---------|---------|---------|
G|---------|-5-------|---------|---------|
D|-3-------|-5-------|-5-------|-7-------|
A|-3-------|-3-------|-5-------|-7-------|  x3
E|-1-------|---------|-3-------|-5-------|

E|---------|---------|---------|-------------|
B|---------|---------|---------|-------------|
G|---------|-5-------|---------|-------------|
D|-3-------|-5-------|-5-------|-7-7--7-7777-|
A|-3-------|-3-------|-5-------|-7-7--7-7777-|
E|-1-------|---------|-3-------|-5-5--5-5555-|

OUTRO:

E|---------|---------|---------|---------|
B|---------|---------|---------|---------|
G|-5-------|---------|---------|-5-------|
D|-5-------|-7-------|-5-------|-5-------|
A|-3-------|-7-------|-5-------|-3-------|  x2
E|---------|-5-------|-3-------|---------|

(Hold the last note)

E|---------------------|
B|---------------------|
G|-5-5--5-5555-5-------|
D|-5-5--5-5555-5-------|
A|-3-3--3-3333-3-------|
E|---------------------|
Suggest correction
Give kudos to tab author, rate the tab!
1 2 3 4 5
comments
print report bad tab
guest
You may want to rate the tab now too:
select rating
Wanna post a correction for this tab? Suggest correction