Oops, an error
Loading. Please wait.

Smile Ichiban Ii Onna Bass Tab

version 1
version 1

Whole song

Interactive

6,385 views 3 this week
2 commentsread comments
1 2 3 4 5
please rate
add to favorites
launch autoscroll
font size
0
reset
guitar tuner
Autoscroll
slow
fast
+/-
esc
set tempo
stop
Help us to improve Ultimate-Guitar.com Take our survey!
×
Author
Difficulty
intermediate
#----------------------------------PLEASE NOTE---------------------------------#
#This file is the author's own work and represents their interpretation of the #
#song. You may only use this file for private study, scholarship, or research. #
#------------------------------------------------------------------------------##

                        SMILE ICHIBAN II ONNA (Bassline)
                             As recorded by An Cafe
                              (www.ancafe-web.com)

Words and Music by An Cafe
Transcribed by Alexander Joyce (Ravenex)

Bass (E A D G) - 'Kanon'

 Intro
  Q=160
 4/4
  Gtr I
  Wx8
|--------||
|--------||
|--------||
|--------||


 Intro pt.2
  E E E E E E E E   E E E E E E E E   E E E E E E E E   E E E E E E E E
|-----------------|-----------------|-----------------|-----------------|
|-----------------|-----------------|-----------------|-----------------|
|-----------------|-----------------|-----------------|-----------------|
|-2-2-2-2-2-2-2-2-|-4-4-4-4-4-4-4-4-|-1-1-1-1-1-1-1-1-|-6-6-6-6-6-6-6-6-|


  E E E E E E E E   E E E E E E E E   E E E E E E E E   E E E E Q  Q
|-----------------|-----------------|-----------------|----------------|
|-----------------|-----------------|-----------------|----------------|
|-----------------|-----------------|-6-6-6-6-8-8-8-8-|-4----------6\--|
|-2-2-2-2-2-2-2-2-|-4-4-4-4-4-4-4-4-|-----------------|---6-6-4-6------|


 main riff
  E E E E E E E E   E E E E E E E E   E E E E E E E E   E E E E E E Q
|-----------------|-----------------|-----------------|-----------------|
|-----------------|-----------------|-----------------|-----------------|
|-----------------|-4-4-4-4-4-4-4-4-|-6-6-6-6-6-6-6-6-|-8-8-8-8-8-8-8\--|
|-6-6-6-6-6-6-6-6-|-----------------|-----------------|-----------------|


  E E E E E E E E   E E E E E E E E   E E E E E E E E   E. E. E E E E E
|-----------------|-----------------|-----------------|------------------||
|-----------------|-----------------|-----------------|------------------||
|-----------------|-4-4-4-4-4-4-4-4-|-6-6-6-6-6-6-6-6-|-4--4--4-3-3-4-3--||
|-6-6-6-6-6-6-6-6-|-----------------|-----------------|------------------||


   verse 1
    E E E E E E E E   E  E E E E E E E   E E E E E E E E   E. E. E E E E E
||------------------|------------------|-----------------|-------------------||
||o---8p6---6---6-8-|----8p6---6---6-8-|---8p6---6---6-8-|------------------o||
||o-------8---8-----|--------8---8-----|-------8---8-----|-4--4--4-3-3-4-3--o||
||--6---------------|------------------|-----------------|-------------------||


 Bridge
  E E E E E E E E   E E E E E E E E   E E E E E E E E   E E E E E E E E
|-----------------|-----------------|-----------------|-----------------|
|-----------------|-----------------|-----------------|-----------------|
|-----------------|-----------------|-----------------|-----3-3-4-4-6-6-|
|-2-2-2-2-2-2-2-2-|-1-1-1-1-6-6-6-6-|-4-4-4-4-4-4-4-4-|-6-6-------------|


  E E E E E E E E   E E E E E E E E
|-----------------|-----------------|
|-----------------|-----------------|
|-----------------|-4-4-4-4-4-4-4-4-|
|-2-2-2-2-2-2-2-2-|-----------------|


   E  E  E  E  E  E  E  E   E. E. E  Q   Q
|-------------------------|------------------||
|-------------------------|------------------||
|-11-11-11-11-11-11-11-11-|-9--9--9-11\------||
|-------------------------|------------------||


 Chorus
  E E E E E E E E   E E E E E E E E   E E E E E E E E   E E E E E E E E
|-----------------|-----------------|-----------------|-----------------|
|-----------------|-----------------|-----------------|-----------------|
|-----------------|-----------------|-----------------|-----------------|
|-2-2-2-2-2-2-2-2-|-4-4-4-4-4-4-4-4-|-1-1-1-1-1-1-1-1-|-6-6-6-6-6-6-6-6-|


  E E E E E E E E       E E E E E E E E
|---------------------|-----------------------|
|---------------------|-----------------------|
|---------------------|-----------------------|
|-2-2-2-2-2-2-2-2-----|-4-4-4-4-4-4-4-4-------|


  E E E E E E E E        E E E E E E E E
|----------------------|-----------------||
|----------------------|-----------------||
|-4-4-4-4-4-4-4-4------|-----------------||
|----------------------|-1-1-1-1-1-1-1-1-||


  E E E E E E E E   E E E E E E E E   E E E E E E E E   E E E E E E E E
|-----------------|-----------------|-----------------|-----------------|
|-----------------|-----------------|-----------------|-----------------|
|-----------------|-----------------|-----------------|-----------------|
|-2-2-2-2-2-2-2-2-|-4-4-4-4-4-4-4-4-|-1-1-1-1-1-1-1-1-|-6-6-6-6-6-6-6-6-|


  E E E E E E E E   E E E E E E E E   E E E E E E E E   E E E E Q  Q
|-----------------|-----------------|-----------------|----------------|
|-----------------|-----------------|-----------------|----------------|
|-----------------|-----------------|-6-6-6-6-8-8-8-8-|-4----------6\--|
|-2-2-2-2-2-2-2-2-|-4-4-4-4-4-4-4-4-|-----------------|---6-6-4-6------|


 Verse 2
  W          W          W          E. E. E E E E E
|----------|----------|----------|------------------|
|----------|----------|----------|------------------|
|----------|----------|----------|-4--4--4-3-3-4-3--|
|----------|----------|----------|------------------|


  E E E E E S E. E   E E E E E S E. E     E  E E E E E E E   E. E. E E E E E
|------------------|------------------|-/10-10-8-6---------|------------------||
|---8p6---6---6--8-|---8p6---6---6--8-|------------8-6-----|------------------||
|-------8---8------|-------8---8------|----------------8-6-|-4--4--4-3-3-4-3--||
|-6----------------|-6----------------|--------------------|------------------||


 interlude
  Wx4
|--------|
|--------|
|--------|
|--------|


  W          W          W          E. E. E E E E E
|----------|----------|----------|------------------|
|----------|----------|----------|------------------|
|----------|-4--------|-6--------|-4--4--4-3-3-4-3--|
|-6--------|----------|----------|------------------|


 Guitar solo
  E E E E E E E E   E E E E E E E E   E E E E E E E E   E E E E E E E E
|-----------------|-----------------|-----------------|-----------------|
|-----------------|-----------------|-----------------|-----------------|
|-----------------|-----------------|-----------------|-----3-3-4-4-6-6-|
|-2-2-2-2-2-2-2-2-|-1-1-1-1-6-6-6-6-|-4-4-4-4-4-4-4-4-|-6-6-------------|


  E E E E E E E E   E E E E E E E E   E E E E E E E E   E E E E E E E E
|-----------------|-----------------|-----------------|-----------------|
|-----------------|-----------------|-----------------|-----------------|
|-----------------|-4-4-4-4-4-4-4-4-|-----------------|-----------------|
|-2-2-2-2-2-2-2-2-|-----------------|-4-4-4-4-4-4-4-4-|-4-4-4-4-4-4-4-4-|


                            Interlude 2
   E E E E E E E E    W      W          W          W
|------------------|------||----------|----------|-----|
|-/6-6-6-6-6-6-6-6-|--6---||----------|----------|-----|
|------------------|------||----------|----------|-----|
|------------------|------||-2--------|-4--------|-1---|


   W          W          W          W       W
|-----------|----------|----------|-------|----||
|-----------|----------|----------|-------|----||
|-----------|----------|----------|-4-----|-4--||
|-/6--------|-2--------|-4--------|-------|----||


 Final chorus
  E E E E E E E E   E E E E E E E E   E E E E E E E E   E E E E E E E E
|-----------------|-----------------|-----------------|-----------------|
|-----------------|-----------------|-----------------|-----------------|
|-----------------|-----------------|-----------------|-----------------|
|-2-2-2-2-2-2-2-2-|-4-4-4-4-4-4-4-4-|-1-1-1-1-1-1-1-1-|-6-6-6-6-6-6-6-6-|


  E E E E E E E E   E E E E E E E E   E E E E E E E E   E E E E E E E E
|-----------------|-----------------|-----------------|-----------------|
|-----------------|-----------------|-----------------|-----------------|
|-----------------|-----------------|-4-4-4-4-4-4-4-4-|-----------------|
|-2-2-2-2-2-2-2-2-|-4-4-4-4-4-4-4-4-|-----------------|-1-1-1-1-1-1-1-1-|


  E E E E E E E E   E E E E E E E E   E E E E E E E E   E E E E E E E E
|-----------------|-----------------|-----------------|-----------------|
|-----------------|-----------------|-----------------|-----------------|
|-----------------|-----------------|-----------------|-----------------|
|-2-2-2-2-2-2-2-2-|-4-4-4-4-4-4-4-4-|-1-1-1-1-1-1-1-1-|-6-6-6-6-6-6-6-6-|


  E E E E E E E E   E E E E E E E E   E E E E E E E E   E E E E Q  Q
|-----------------|-----------------|-----------------|----------------|
|-----------------|-----------------|-----------------|----------------|
|-----------------|-----------------|-6-6-6-6-8-8-8-8-|-4----------6\--|
|-2-2-2-2-2-2-2-2-|-4-4-4-4-4-4-4-4-|-----------------|---6-6-4-6------|


                                 2nd guitar solo
  E E E E E E E E   E E E E H     E E E E E E E E   E E E E E E E E
|-----------------|------------||-----------------|-------------------|
|-----------------|------------||-----------------|-------------------|
|-6-6-6-6-8-8-8-8-|-4----------||-----------------|-------------------|
|-----------------|---6-6-4-6--||-2-2-2-2-2-2-2-2-|-4-4-4-4-4-4-4-4---|


  E E E E E E E E   E E E E E E E E   E E E E E E E E   E E E E E E E E
|-----------------|-----------------|-----------------|-----------------|
|-----------------|-----------------|-----------------|-----------------|
|-----------------|-----------------|-----------------|-----------------|
|-1-1-1-1-1-1-1-1-|-6-6-6-6-6-6-6-6-|-2-2-2-2-2-2-2-2-|-4-4-4-4-4-4-4-4-|


  E E E E E E E E   E E E E E E E E   E E E E E E E E   E E E E E E E E
|-----------------|-----------------|-----------------|-----------------|
|-----------------|-----------------|-----------------|-----------------|
|-4-4-4-4-4-4-4-4-|-----------------|-----------------|-----------------|
|-----------------|-1-1-1-1-1-1-1-1-|-2-2-2-2-2-2-2-2-|-4-4-4-4-4-4-4-4-|


  E E E E E E E E   E E E E E E E E   E E E E E E E E   E E E E E E E E
|-----------------|-----------------|-----------------|-----------------|
|-----------------|-----------------|-----------------|-----------------|
|-----------------|-----------------|-----------------|-----------------|
|-1-1-1-1-1-1-1-1-|-6-6-6-6-6-6-6-6-|-2-2-2-2-2-2-2-2-|-4-4-4-4-4-4-4-4-|


    E E E E E E E E   E E E E E E E E  3x W
||------------------|------------------||------|
||o-----------------|-4-4-4-4-6-6-6-6-o||------|
||o-6-6-6-6-8-8-8-8-|-----------------o||------|
||------------------|------------------||-6----|


Duration Legend
---------------
W - whole; H - half; Q - quarter; E - 8th; S - 16th; T - 32nd; X - 64th; a - acciaccatura
+ - note tied to previous; . - note dotted; .. - note double dotted
Uncapitalized letters represent notes that are staccato (1/2 duration)
Irregular groupings are notated above the duration line
Duration letters will always appear directly above the note/fret number it represents the
duration for.  Duration letters with no fret number below them represent rests.  Multi-
bar rests are notated in the form Wxn, where n is the number of bars to rest for.  Low
melody durations appear below the staff

Tablature Legend
----------------
 h   - hammer-on
 p   - pull-off
 b   - bend
 pb  - pre-bend
 r   - bend release (if no number after the r, then release immediately)
 /\  - slide into or out of (from/to "nowhere")
 s   - legato slide
 S   - shift slide
  - natural harmonic
[n]  - artificial harmonic
n(n) - tapped harmonic
 ~   - vibrato
 tr  - trill
 T   - tap
 TP  - trem. picking
 PM  - palm muting
\n/  - tremolo bar dip; n = amount to dip
 \n  - tremolo bar down
 n/  - tremolo bar up
/n\  - tremolo bar inverted dip
 =   - hold bend; also acts as connecting device for hammers/pulls
 <>  - volume swell (louder/softer)
 x   - on rhythm slash represents muted slash
 o   - on rhythm slash represents single note slash

Misc Legend
-----------
 |  - bar
||  - double bar
||o - repeat start
o|| - repeat end
*|  - double bar (ending)
 :  - bar (freetime)
 $  - Segno
 &  - Coda
Tempo markers -  = BPM(8/16=s8/s16), where s8 = swing 8ths, s16 = swing 16ths


***************************************************************************************
* Generated using Power Tab Editor by Brad Larsen - http://powertab.guitarnetwork.org *
***************************************************************************************
Suggest correction
Give kudos to tab author, rate the tab!
1 2 3 4 5
comments
print report bad tab
2 comments total.
0 reply
funk//rock666 10 wrote on September 2 2007, 03:08 pm

This is awesome thanks a lot I used it to help me with the guitar parts but some one should definitely put the guitar solos and stuff on here cause I figured out half of it but can't get the rest >.< lol

0 reply
RetroIndieTom 10 wrote on February 24 2009, 02:45 pm

Any chance you could do the bassline for Cherry Saku Yuuki!!? I would really appreciate it and this tab is spot on!

guest
You may want to rate the tab now too:
select rating
Please do not post tabs as comments. Select "correction" instead!