Oops, an error
Loading. Please wait.

Smile Ichiban Ii Onna Tab

version 1
version 1

Whole song

Interactive

9,055 views 3 this week
1 commentread comment
1 2 3 4 5
2 more votes to show rating
add to favorites
launch autoscroll
font size
0
reset
how to read this tab
guitar tuner
Autoscroll
slow
fast
+/-
esc
set tempo
stop
Help us to improve Ultimate-Guitar.com Take our survey!
×
If there are any mistakes, email me at besthiohbye1@hotmail.com.

It's pretty much perfect, though.

(:


Intro:
e|------------------------------6--------------------------------------------|
B|------------------------------10bend---------------------------------------|
G|--3~-----------5~----------------------------------------------------------|
D|--4~-----------6~-------------------------------x\\\\\\\\\\\\--------------|
A|--4~-----------6~-------------------------------x\\\\\\\\\\\\--------------|
E|--2~-----------4~-------------------------------x\\\\\\\\\\\\--------------|






Chorus:
e|---------------------------------------------------------------------------|
B|---------------------------------------------------------------------------|
G|---------------------------------------------------------------------------|
D|-4-4-4-4-4-4-4-4-6-6-6-6-6-6-6-6---3-3-3-3-3-3-3-3---8-8-8-8-8-8-8-8-------|
A|-4-4-4-4-4-4-4-4-6-6-6-6-6-6-6-6---3-3-3-3-3-3-3-3---8-8-8-8-8-8-8-8-------|
E|-2-2-2-2-2-2-2-2-4-4-4-4-4-4-4-4---1-1-1-1-1-1-1-1---6-6-6-6-6-6-6-6-------|
   Kirameke venus utsukushiku        Kirameke venus  konjiki ni


e|---------------------------------------------------------------------------|
B|---------------------------------------------------------------------------|
G|---------------------------------------------------------------------------|
D|-4-4-4-4-4-4-4-4-6-6-6-6-6-6-6-6-----8-8-8-8-10-10-10-10---6---------------|
A|-4-4-4-4-4-4-4-4-6-6-6-6-6-6-6-6-----6-6-6-6-8--8--8--8----4-8-8-6-8-------|
E|-2-2-2-2-2-2-2-2-4-4-4-4-4-4-4-4-----------------------------6-6-4-6-------|
   Boku no kokoro  Terasu kimi wa      sumairu ichiban       ii  onna 






Bridge:
e|---------------------------------------------------------------------------|
B|---------------------------------------------------------------------------|
G|-3~-----6~-----8~----10~----3~-----6~-----8~------6--6--6--5-5-6-5---------|
D|-3~-----6~-----8~----10~----3~-----6~-----8~------6--6--6--5-5-6-5---------|
A|-1~-----4~-----6~-----8~----1~-----4~-----6~------4--4--4--3-3-4-3---------|
E|---------------------------------------------------------------------------|







Verse:
e|---------------------------------------------------------------------------|
B|---------------------------------------------------------------------------|
G|-3~---------------------------------------------------6--6--6--5-5-6-5-----|
D|-3~---------------------------------------------------6--6--6--5-5-6-5-----|
A|-1~---------------------------------------------------4--4--4--3-3-4-3-----|
E|---------------------------------------------------------------------------|
   Kirei na ano ko ni shitto wo shiteru Ano ko mitai ni umare kawaretara


e|---------------------------------------------------------------------------|
B|---------------------------------------------------------------------------|
G|-3~---------------------------------------------------6--6--6--5-5-6~------|
D|-3~---------------------------------------------------6--6--6--5-5-6~------|
A|-1~---------------------------------------------------4--4--4--3-3-4~------|
E|---------------------------------------------------------------------------|
  Jinsei sukoshi wa chigatteta kamo ne nante mistake na kangae de 






Pre Chorus:

Lead
e|---------------------------------------------------------------------------|
B|---------------------------------------------------------------------------|
G|--------------------------------------------3-5-6-8------------------------|
D|---------------------------------------------------------------------------|
A|---------------------------------------------------------------------------|
E|---------------------------------------------------------------------------|
   Onaji hito ga   futari        itemo dame de

Rhythm
e|---------------------------------------------------------------------------|
B|---------------------------------------------------------------------------|
G|---------------------------------------------------------------------------|
D|-4--4-4-4-4-4-4-3-3-3-3-8-8-8-8-6-6-6-6-6-6-6-6-8-8-8-8-8-8-8-8------------|
A|-4--4-4-4-4-4-4-3-3-3-3-8-8-8-8-6-6-6-6-6-6-6-6-8-8-8-8-8-8-8-8------------|
E|-2--2-2-2-2-2-2-1-1-1-1-6-6-6-6-4-4-4-4-4-4-4-4-6-6-6-6-6-6-6-6------------|
PM •  • • • • • • • • • • • • • • • • • • • • • • • • • • • • • •
   Onaji hito ga   futari        itemo dame de 

Lead
e|---------------------------------------------------------------------------|
B|---------------------------------------------------------------------------|
G|-6~------------------------------------------------------------------------|
D|---------------------------------------------------------------------------|
A|---------------------------------------------------------------------------|
E|---------------------------------------------------------------------------|

Rhythm
e|---------------------------------------------------------------------------|
B|---------------------------------------------------------------------------|
G|---------------------------------------------------------------------------|
D|--4-4-4-4-4-4-4-4-6-6-6-6-6-6-6-6--6-6-6-6-6-6-6-6--4-4-4-6\---------------|
A|--4-4-4-4-4-4-4-4-4-4-4-4-4-4-4-4--6-6-6-6-6-6-6-6--4-4-4-6\---------------|
E|--2-2-2-2-2-2-2-2------------------4-4-4-4-4-4-4-4--2-2-2-4\---------------|
   Sekai ni hitotsu dake    no      egao ni           hikareru 




Chorus:
e|---------------------------------------------------------------------------|
B|---------------------------------------------------------------------------|
G|---------------------------------------------------------------------------|
D|-4-4-4-4-4-4-4-4-6-6-6-6-6-6-6-6---3-3-3-3-3-3-3-3---8-8-8-8-8-8-8-8-------|
A|-4-4-4-4-4-4-4-4-6-6-6-6-6-6-6-6---3-3-3-3-3-3-3-3---8-8-8-8-8-8-8-8-------|
E|-2-2-2-2-2-2-2-2-4-4-4-4-4-4-4-4---1-1-1-1-1-1-1-1---6-6-6-6-6-6-6-6-------|
   Kagayake venus  mujaki ni         Kagayake venus  hokorashiku 

e|---------------------------------------------------------------------------|
B|---------------------------------------------------------------------------|
G|---------------------------------------------------------------------------|
D|-4-4-4-4-4-4-4-4-6-6-6-6-6-6-6-6-----6-6-6-6-6-6-6-6-----------------------|
A|-4-4-4-4-4-4-4-4-6-6-6-6-6-6-6-6-----4-4-4-4-4-4-4-4--3-3-3-3-3-3-3-3------|
E|-2-2-2-2-2-2-2-2-4-4-4-4-4-4-4-4----------------------1-1-1-1-1-1-1-1------|
   Kono sekai wo  kimi dake no raito de terase 

e|---------------------------------------------------------------------------|
B|---------------------------------------------------------------------------|
G|---------------------------------------------------------------------------|
D|-4-4-4-4-4-4-4-4-6-6-6-6-6-6-6-6---3-3-3-3-3-3-3-3---8-8-8-8-8-8-8-8-------|
A|-4-4-4-4-4-4-4-4-6-6-6-6-6-6-6-6---3-3-3-3-3-3-3-3---8-8-8-8-8-8-8-8-------|
E|-2-2-2-2-2-2-2-2-4-4-4-4-4-4-4-4---1-1-1-1-1-1-1-1---6-6-6-6-6-6-6-6-------|
   Kirameke venus utsukushiku        Kirameke venus  konjiki ni

e|---------------------------------------------------------------------------|
B|---------------------------------------------------------------------------|
G|---------------------------------------------------------------------------|
D|-4-4-4-4-4-4-4-4-6-6-6-6-6-6-6-6-----8-8-8-8-10-10-10-10---6---------------|
A|-4-4-4-4-4-4-4-4-6-6-6-6-6-6-6-6-----6-6-6-6-8--8--8--8----4-8-8-6-8-------|
E|-2-2-2-2-2-2-2-2-4-4-4-4-4-4-4-4-----------------------------6-6-4-6-------|
   Boku no kokoro Terasu kimi wa       sumairu ichiban       ii onna 


Verse:
e|---------------------------------------------------------------------------|
B|---------------------------------------------------------------------------|
G|---------------------------------------------------------------------------|
D|---------------------------------------------------------------------------|
A|---------------------------------------------------------------------------|
E|---------------------------------------------------------------------------|
   Hade na keshou ni nail nanka shite...

e|---------------------------------------------------------------------------|
B|---------------------------------------------------------------------------|
G|---------------------------------------------------------------------------|
D|------------------6-6-6-5-5-6-5--------------------------------------------|
A|------------------4-4-4-3-3-4-3--------------------------------------------|
E|---------------------------------------------------------------------------|
   Iketeru onna ni natta ki de ite mo 

e|---------------------------------------------------------------------------|
B|---------------------------------------------------------------------------|
G|-3~------------------------------------------------------6-6-6-3\----------|
D|-3~------------------------------------------------------6-6-6-3\----------|
A|-1~------------------------------------------------------4-4-4-3\----------|
E|---------------------------------------------------------------------------|
   Nanika chigau tte kidzukare wo shite Uso wo tsuku no mo iya desho?



Pre Chorus:

Lead
e|---------------------------------------------------------------------------|
B|---------------------------------------------------------------------------|
G|--------------------------------------------\11-10-6\10-------------------|
D|---------------------------------------------------------------------------|
A|---------------------------------------------------------------------------|
E|---------------------------------------------------------------------------|
   Ari no mama no jibun   wo      aisanakya 


Rhythm
e|---------------------------------------------------------------------------|
B|---------------------------------------------------------------------------|
G|---------------------------------------------------------------------------|
D|-4--4-4-4-4-4-4-3-3-3-3-8-8-8-8-6-6-6-6-6-6-6-6-8-8-8-8-8-8-8-8------------|
A|-4--4-4-4-4-4-4-3-3-3-3-8-8-8-8-6-6-6-6-6-6-6-6-8-8-8-8-8-8-8-8------------|
E|-2--2-2-2-2-2-2-1-1-1-1-6-6-6-6-4-4-4-4-4-4-4-4-6-6-6-6-6-6-6-6------------|
PM •  • • • • • • • • • • • • • • • • • • • • • • • • • • • • • •
   Ari no mama no jibun   wo      aisanakya 

Lead
e|---------------------------------------------------------------------------|
B|---------------------------------------------------------------------------|
G|-10~-----------------------------------------------------------------------|
D|---------------------------------------------------------------------------|
A|---------------------------------------------------------------------------|
E|---------------------------------------------------------------------------|

Rhythm
e|---------------------------------------------------------------------------|
B|---------------------------------------------------------------------------|
G|---------------------------------------------------------------------------|
D|--4-4-4-4-4-4-4-4-6-6-6-6-6-6-6-6-8-8-8-8-8-8-8-8--10--10--10--10--10\\----|
A|--4-4-4-4-4-4-4-4-4-4-4-4-4-4-4-4-6-6-6-6-6-6-6-6---8---8---8---8--10\\----|
E|--2-2-2-2-2-2-2-2---------------------------------------------------8\\----|
    Hito wo ai suru koto sae        dekiru           wake ga nai 




Chorus:
e|---------------------------------------------------------------------------|
B|---------------------------------------------------------------------------|
G|---------------------------------------------------------------------------|
D|-4-4-4-4-4-4-4-4-6-6-6-6-6-6-6-6---3-3-3-3-3-3-3-3---8-8-8-8-8-8-8-8-------|
A|-4-4-4-4-4-4-4-4-6-6-6-6-6-6-6-6---3-3-3-3-3-3-3-3---8-8-8-8-8-8-8-8-------|
E|-2-2-2-2-2-2-2-2-4-4-4-4-4-4-4-4---1-1-1-1-1-1-1-1---6-6-6-6-6-6-6-6-------|
   Tokimeku venus  junjou ni         Yurameku venus wa romansu 

e|---------------------------------------------------------------------------|
B|---------------------------------------------------------------------------|
G|---------------------------------------------------------------------------|
D|-4-4-4-4-4-4-4-4-6-6-6-6-6-6-6-6-----6-6-6-6-6-6-6-6-----------------------|
A|-4-4-4-4-4-4-4-4-6-6-6-6-6-6-6-6-----4-4-4-4-4-4-4-4--3-3-3-3-3-3-3-3------|
E|-2-2-2-2-2-2-2-2-4-4-4-4-4-4-4-4----------------------1-1-1-1-1-1-1-1------|
   Koi suru kimi ni koi wo shite      shimau            yo 

e|---------------------------------------------------------------------------|
B|---------------------------------------------------------------------------|
G|---------------------------------------------------------------------------|
D|-4-4-4-4-4-4-4-4-6-6-6-6-6-6-6-6---3-3-3-3-3-3-3-3---8-8-8-8-8-8-8-8-------|
A|-4-4-4-4-4-4-4-4-6-6-6-6-6-6-6-6---3-3-3-3-3-3-3-3---8-8-8-8-8-8-8-8-------|
E|-2-2-2-2-2-2-2-2-4-4-4-4-4-4-4-4---1-1-1-1-1-1-1-1---6-6-6-6-6-6-6-6-------|
   Kirauru  hitomi no manazashi de   Yureteru boku no koto minaide 

e|---------------------------------------------------------------------------|
B|---------------------------------------------------------------------------|
G|---------------------------------------------------------------------------|
D|-4-4-4-4-4-4-4-4-6-6-6-6-6-6-6-6-----8-8-8-8-10-10-10-10---6---------------|
A|-4-4-4-4-4-4-4-4-6-6-6-6-6-6-6-6-----6-6-6-6-8--8--8--8----4-8-8-6-8-------|
E|-2-2-2-2-2-2-2-2-4-4-4-4-4-4-4-4-----------------------------6-6-4-6-------|
   Boku no mune wo kogasu kimi wa       sumairu ichiban ii onna



Pre Solo:
e|---------------------------------------------------------------------------|
B|---------------------------------------------------------------------------|
G|----------------------------3~-----6~-----8~------6--6--6--5-5-6-5---------|
D|----------------------------3~-----6~-----8~------6--6--6--5-5-6-5---------|
A|----------------------------1~-----4~-----6~------4--4--4--3-3-4-3---------|
E|---------------------------------------------------------------------------|



Solo:
e|----6------6--6--------9-9-9-7---------------------------------------------|
B|---10bend10-10--9-------------9-------------------------------------------|
G|------------------------------------8b\rb----6-5-6-5---------------6-8----|
D|------------------------------------------------------6-8-6-----6-8--------|
A|------------------------------------------------------------6-8------------|
E|---------------------------------------------------------------------------|

e|---------------------------------------------------------------------------|
B|-6-7-9--14--9-7-6-7-9--16---9-7-6-7-9-14--9-7-6-7-9--16-6-7-6-7-6-7-6-7-6--|
G|---------------------------------------------------------------------------|
D|---------------------------------------------------------------------------|
A|---------------------------------------------------------------------------|
E|---------------------------------------------------------------------------|
           T              T               T                

e|---------------------------------------------------------------------------|
B|---------------------------------------------------------------------------|
G|---------------6-8-8-6--8-6---------------6-8-8----------------------------|
D|-----------6-8------------------------6-8----------------------------------|
A|-------6-8------------------------6-8--------------------------------------|
E|---4-6------------------------4-6------------------------------------------|

e|-----------------------------------------------13-14-16~~~~----------------|
B|-----------------11-13-14-11-13-14-16-13-14-16-----------------------------|
G|-13~-13-15-17-13-----------------------------------------------------------|
D|---------------------------------------------------------------------------|
A|---------------------------------------------------------------------------|
E|---------------------------------------------------------------------------|

Pre Chorus:

e|---------------------------------------------------------------------------|
B|---------------------------------------------------------------------------|
G|---------------------------------------------------------------------------|
D|---------------------------------------------------------------------------|
A|---------------------------------------------------------------------------|
E|---------------------------------------------------------------------------|
  Warau koto wo osorezu Yuuki wo moteta kimi dake ni

e|---------------------------------------------------------------------------|
B|---------------------------------------------------------------------------|
G|---------------------------------------------------------------------------|
D|---------------------------------------------------------------------------|
A|---------------------------------------------------------------------------|
E|---------------------------------------------------------------------------|
  "Ganbatta ne" to tsutaete agetai yo.......



Chorus:
e|---------------------------------------------------------------------------|
B|---------------------------------------------------------------------------|
G|---------------------------------------------------------------------------|
D|-4-4-4-4-4-4-4-4-6-6-6-6-6-6-6-6---3-3-3-3-3-3-3-3---8-8-8-8-8-8-8-8-------|
A|-4-4-4-4-4-4-4-4-6-6-6-6-6-6-6-6---3-3-3-3-3-3-3-3---8-8-8-8-8-8-8-8-------|
E|-2-2-2-2-2-2-2-2-4-4-4-4-4-4-4-4---1-1-1-1-1-1-1-1---6-6-6-6-6-6-6-6-------|
   Kagayake venus  mujaki ni         Kagayake venus  hokorashiku 

e|---------------------------------------------------------------------------|
B|---------------------------------------------------------------------------|
G|---------------------------------------------------------------------------|
D|-4-4-4-4-4-4-4-4-6-6-6-6-6-6-6-6-----6-6-6-6-6-6-6-6-----------------------|
A|-4-4-4-4-4-4-4-4-6-6-6-6-6-6-6-6-----4-4-4-4-4-4-4-4--3-3-3-3-3-3-3-3------|
E|-2-2-2-2-2-2-2-2-4-4-4-4-4-4-4-4----------------------1-1-1-1-1-1-1-1------|
   Kono sekai wo  kimi dake no raito de terase 

e|---------------------------------------------------------------------------|
B|---------------------------------------------------------------------------|
G|---------------------------------------------------------------------------|
D|-4-4-4-4-4-4-4-4-6-6-6-6-6-6-6-6---3-3-3-3-3-3-3-3---8-8-8-8-8-8-8-8-------|
A|-4-4-4-4-4-4-4-4-6-6-6-6-6-6-6-6---3-3-3-3-3-3-3-3---8-8-8-8-8-8-8-8-------|
E|-2-2-2-2-2-2-2-2-4-4-4-4-4-4-4-4---1-1-1-1-1-1-1-1---6-6-6-6-6-6-6-6-------|
   Kirameke venus utsukushiku        Kirameke venus  konjiki ni

e|---------------------------------------------------------------------------|
B|---------------------------------------------------------------------------|
G|---------------------------------------------------------------------------|
D|-4-4-4-4-4-4-4-4-6-6-6-6-6-6-6-6-----8-8-8-8-10-10-10-10---6---------------|
A|-4-4-4-4-4-4-4-4-6-6-6-6-6-6-6-6-----6-6-6-6-8--8--8--8----4-8-8-6-8-------|
E|-2-2-2-2-2-2-2-2-4-4-4-4-4-4-4-4-----------------------------6-6-4-6-------|
   Boku no kokoro Terasu kimi wa       sumairu ichiban       ii onna 


e|---------------------------------------------------------------------------|
B|---------------------------------------------------------------------------|
G|---------------------------------------------------------------------------|
D|-8-8-8-8-10-10-10-10---6---------------------------------------------------|
A|-6-6-6-6-8--8--8--8----4-8-8-6-8-------------------------------------------|
E|-------------------------6-6-4-6-------------------------------------------|
   Kimi ga boku no taiyou sa!




Outro:
e|---------------------------------------------------------------------------|
B|---------------------------------------------------------------------------|
G|--\6-5-6--8-8-8-8-10-8--8-6-8-13-11-10-11-10-6-----------------------------|
D|---------------------------------------------------------------------------|
A|---------------------------------------------------------------------------|
E|---------------------------------------------------------------------------|


e|---------------------------------------------------------------------------|
B|---------------------------------------------------------------------------|
G|--\6-5-6--8-8-8-8-10-8--8-8-8-6-\\\--13-11-10-11-10-----------------------|
D|-----------------------------------------------------11--------------------|
A|---------------------------------------------------------------------------|
E|---------------------------------------------------------------------------|

e|-------------------------------------------16--14--13-14-13----------------|
B|-\14-13-14--16-16-16-16-18-16---\16-14-16------------------14-------------|
G|---------------------------------------------------------------------------|
D|---------------------------------------------------------------------------|
A|---------------------------------------------------------------------------|
E|---------------------------------------------------------------------------|

e|---------------------------------------------------------------------------|
B|-\14-13-14--16-16-16-16-18-16----------------------------------------------|
G|---------------------------------------------------------------------------|
D|---------------------------------------------------------------------------|
A|---------------------------------------------------------------------------|
E|---------------------------------------------------------------------------|


e|-------------13-11-13-14-16-14-13-11---------------------------------------|
B|-14-13-14-16--------------------------14-13-14-16--------------------------|
G|---------------------------------------------------------------------------|
D|---------------------------------------------------------------------------|
A|---------------------------------------------------------------------------|
E|---------------------------------------------------------------------------|

e|-------------13-11-13-14-16-14-13-11---------------------------------------|
B|-14-13-14-16--------------------------14-13-14-16--------------------------|
G|---------------------------------------------------------------------------|
D|---------------------------------------------------------------------------|
A|---------------------------------------------------------------------------|
E|---------------------------------------------------------------------------|

e|--------------13----11-13-14-11-13-14-16-13-14-16-18~~~~~~-----------------|
B|-14-13-14-16-----14--------------------------------------------------------|
G|---------------------------------------------------------------------------|
D|---------------------------------------------------------------------------|
A|---------------------------------------------------------------------------|
E|---------------------------------------------------------------------------|


Suggest correction
Give kudos to tab author, rate the tab!
1 2 3 4 5
comments
print report bad tab
1 comment total.
0 reply
god of rock121 73 Apr 17, 2009 03:34 PM

you like an cafe then coz they are so ****ing awesome thanks alot for tab

guest
You may want to rate the tab now too:
select rating
Wanna post a correction for this tab? Suggest correction