Oops, an error
Loading. Please wait.

The Hero Without A Name bass

by An Cafe
64 views 1 this week
no commentswrite comment
1 2 3 4 5
3 more votes to show rating
add to favorites
×
Save as Personal and add changes to this tab that will be seen only by you. Learn more ›
×
You can save this tab as Personal to edit and correct it or add notes. All changes will be seen only by you. Learn more »
launch autoscroll
font size
0
reset
guitar tuner
edit
Autoscroll
slow
fast
+/-
esc
set tempo
stop
Author
Difficulty

Intro
G|-----------------------------------------------------------------|
D|-----------------------------------------------------------------|
A|-2-------------------------------0---------------5-------4-------|
E|-----------------3-----------------------------------------------|
   1 + 2 + 3 + 4 + 1 + 2 + 3 + 4 + 1 + 2 + 3 + 4 + 1 + 2 + 3 + 4 +

G|------------------------------------------------------------------|
D|------------------------------------------------------------------|
A|-2---2-2-2-2-2-2-----------------0---0-0-0---0---5--5--5-4---/16\-|
E|-----------------3-3-3-3-3---3------------------------------------|
   1 + 2 + 3 + 4 + 1 + 2 + 3 + 4 + 1 + 2 + 3 + 4 + Triplet 3 + 4 +

Verse 0:14
G|-----------------------------------------------------------------|
D|-----------4-2-0-------------------------------------------------|
A|-2---2---2-----------------5-4-2-0-----0-0-7-5-4-5-5---5-4-4-4---|
E|-----------------3-----3-3---------------------------------------|
   1 + 2 + 3 + 4 + 1 + 2 + 3 + 4 + 1 + 2 + 3 + 4 + 1 + 2 + 3 + 4 +

G|-----------------------------------------------6-7---7---6-6-6-\-|
D|-----------4-2-0-----------------7-----7-7---7-----7-------------|
A|-2---2---2--------------------------7------7---------------------|
E|-----------------3-----3-3-/-15\---------------------------------|
   1 + 2 + 3 + 4 + 1 + 2 + 3 + 4 + Triplet 3 + 4 + 1 + 2 + 3 + 4 +

Interlude 0:26
G|-----------------------------------------------------------------|
D|-----------4-2-0-------------------------------------------------|
A|-2---2---2-----------------5-4-2-0---0---0-7-5-4-5---5-5-4-4-4---|
E|-----------------3---3---3---------------------------------------|
   1 + 2 + 3 + 4 + 1 + 2 + 3 + 4 + 1 + 2 + 3 + 4 + 1 + 2 + 3 + 4 +

G|------------------------------------------------6-7-7-7---6-6-6---|
D|-----------4-2-0------------------7-----7-----7-------------------|
A|-2---2---2----------------------------7-----7---------------------|
E|-----------------3---3---3-/-10-----------------------------------|
   1 + 2 + 3 + 4 + 1 + 2 + 3 + 4  + 1 + 2 + 3 + 4 + 1 + 2 + 3 + 4 +

Verse 0:38
G|-----------------------------------------------------------------|
D|-----------------------------------------------------------------|
A|-2-2-2-2-2-2-2-2-----------------0-0-0-0-0-0-0-0-2-2-2-2-2-0-0---|
E|-----------------3-3-3-3-3-3-3-3---------------------------------|
   1 + 2 + 3 + 4 + 1 + 2 + 3 + 4 + 1 + 2 + 3 + 4 + 1 + 2 + 3 + 4 +

G|-----------------------------------------------------------------|
D|-----------------------------------------------------------2-0---|
A|-2---2-2-2-2-2-2-----------------0-0-0-0-0-0-0-0-2-2-2-2-2-----0-|
E|-----------------3-3-3-3-3-3-3-3---------------------------------|
   1 + 2 + 3 + 4 + 1 + 2 + 3 + 4 + 1 + 2 + 3 + 4 + 1 + 2 + 3 + 4 +

Pre Chorus 0:51 
G|-----------------------------------------------------------------|
D|-----------------------------------------------------------------|
A|---------5-5-4-2-0-0-0-0-0-0-0-0-----------------2-2-2-2-2---2-0-|
E|-3---3-3-------------------------2-2-2-2-2-2-2-2-----------2-----|
   1 + 2 + 3 + 4 + 1 + 2 + 3 + 4 + 1 + 2 + 3 + 4 + 1 + 2 + 3 + 4 +

G|-----------------------------------------------------------------|
D|-----------------------------------------------------------2-0---|
A|---------------5-0---0---0---0---2---2---2---2---2-2-2-2-2-----0-|
E|-3-3-3-3-3-3-3---------------------------------------------------|
   1 + 2 + 3 + 4 + 1 + 2 + 3 + 4 + 1 + 2 + 3 + 4 + 1 + 2 + 3 + 4 +

Verse 1:03
G|-----------------------------------------------------------------|
D|-----------------------------------------------------------------|
A|-2-2-2-2-2-2-2-2-----------------0-0-0-0-0-0-0-0-2-2-2-2-2-2-2---|
E|-----------------3-3-3-3-3-3-3-3---------------------------------|
   1 + 2 + 3 + 4 + 1 + 2 + 3 + 4 + 1 + 2 + 3 + 4 + 1 + 2 + 3 + 4 +

G|-------------------------------------------------------------------|
D|-------------------------------------------2-0---------------------|
A|-2---2-2-2-0-2-0-----------------0---0-0-0-----4-2---2-/-14---14-\-|
E|-----------------3-3-3-3-3-2-3-2-----------------------------------|
   1 + 2 + 3 + 4 + 1 + 2 + 3 + 4 + 1 + 2 + 3 + 4 + 1 + 2 + 3  + 4  +

Pre Chorus 1:15
G|------------------------------------------------------------------|
D|-----------------5-----5-5-5---------4-4-4-------------------4----|
A|-----------------------------5-\-----------5-4---2---2---2--------|
E|-3---3-3-3-3-3-3-----------------2--------------------------------|
   1 + 2 + 3 + 4 + 1 + 2 + 3 + 4 + 1 + 2 + 3 + 4 + 1 + 2 + 3 + 4 +

G|-----------------------------------------------------------------|
D|-------------------------------------------------4-2-0---0-------|
A|-----------------0---0---0---0---1---1---1---1---------4---4-2-0-|
E|-3---3---3-3-3-3-------------------------------------------------|
   1 + 2 + 3 + 4 + 1 + 2 + 3 + 4 + 1 + 2 + 3 + 4 + 1 + 2 + 3 + 4 +

Chorus 1:28
G|-----------------------------------------------------------------|
D|-----------4-2-0-------------------------------------------------|
A|-2---2---2-----------------5-4-2-0---0-0-0-7-5-4-5---5-5-4-4-4---|
E|-----------------3---3---3---------------------------------------|
   1 + 2 + 3 + 4 + 1 + 2 + 3 + 4 + 1 + 2 + 3 + 4 + 1 + 2 + 3 + 4 +

G|-----------------------------------------------6-7-----7-6-6---6-|
D|-----------4-2-0-----------------7-----7-7---7------7--------7---|
A|-2---2---2--------------------------7------7---------------------|
E|-----------------3-----3-3-/-15\---------------------------------|
   1 + 2 + 3 + 4 + 1 + 2 + 3 + 4 + Triplet 3 + 4 + Triplet 3 + 4 +

1:40
G|---------------------------------------------------------7-7-6---|
D|-------4-5-----------2---0-------------4-5-----5-7-----7---------|
A|-2---2------5--2-0-----------4-4-2---2------5-------7------------|
E|-----------------------------------------------------------------|
   1 + 2 + Triplet 1 + 2 + 3 + 4 + 1 + 2 + Triplet Triplet 3 + 4 +

G|-----------------------------------------------------------------|
D|-------4-5-----------2---0-------------------------------2-2-4-4-|
A|-2---2------5--2-0-----------4-4---------0---0---2---2-----------|
E|---------------------------------3-3-3-3-------------------------|
   1 + 2 + Triplet 1 + 2 + 3 + 4 + 1 + 2 + 3 + 4 + 1 + 2 + 3 + 4 +

Interlude 1:53
G|-----------------------------------------------------------------|
D|-----------4-2-0-------------------------------------------------|
A|-2---2-2-2-----------------5-4---0---0-0-0-7-5-4-5---5-5-4--/9\--|
E|-----------------3---3---3---------------------------------------|
   1 + 2 + 3 + 4 + 1 + 2 + 3 + 4 + 1 + 2 + 3 + 4 + 1 + 2 + 3 + 4 +

G|-----------------------------------------------------------------|
D|-----------4-2-0-------------------------------------------------|
A|-2---2-2-2-----------------5-4-2-0-0-0-0-0-7-5---2---0-----------|
E|-----------------3---3-3-3-------------------------------3---2---|
   1 + 2 + 3 + 4 + 1 + 2 + 3 + 4 + 1 + 2 + 3 + 4 + 1 + 2 + 3 + 4 +

Verse 2:05
G|---4---4---4---4-------------------2---2---2---2---4-------------|
D|-------------------5---5---5---5---------------------2-0-2-0-----|
A|-2---2---2---2-------------------0---0---0---0---2-----------2-0-|
E|-----------------3---3---3---3-----------------------------------|
   1 + 2 + 3 + 4 + 1 + 2 + 3 + 4 + 1 + 2 + 3 + 4 + 1 + 2 + 3 + 4 +

G|-----------------------------------------------------------------|
D|-----------------------------------------------------------------|
A|-2---2---2---2-----------------5-0---5-4-5-4-2-0-2---2---2-0/9\--|
E|-----------------3---3---3---3-----------------------------------|
   1 + 2 + 3 + 4 + 1 + 2 + 3 + 4 + 1 + 2 + 3 + 4 + 1 + 2 + 3 + 4 +

Pre Chorus 2:17
G|-----------------------------------------------------------------|
D|-----------------------------------------------------------------|
A|-------------------------------------------------2-2-2-2-2-2-2---|
E|-3---3-3-3-3-3-3-3-3-3-3-3-3-3-3-2-2-2-2-2-2-2-2-----------------|
   1 + 2 + 3 + 4 + 1 + 2 + 3 + 4 + 1 + 2 + 3 + 4 + 1 + 2 + 3 + 4 +

G|-----------------------------------------------------------------|
D|-------------------------------------------------------4-----2-4-|
A|-----------------0---0---0-0-0---1---1---1-------2--4----2-4-----|
E|-3---3---3-3-3-3-------------------------------------------------|
   1 + 2 + 3 + 4 + 1 + 2 + 3 + 4 + 1 + 2 + 3 + 4 + Triplet 3 + 4 +

Chorus 2:29
G|-----------------------------------------------------------------|
D|-----------4-2-0-------------------------------------------------|
A|-2---2---2-----------------5-4-2-0-----0-0-7-5-4-5---5-5-4-4-4-4-|
E|-----------------3-3-3-3-3---------------------------------------|
   1 + 2 + 3 + 4 + 1 + 2 + 3 + 4 + 1 + 2 + 3 + 4 + 1 + 2 + 3 + 4 +

G|-----------------------------------------------6-7-7-6-7-6-6-----|
D|-----------4-2-0-----------------7-----7-7---7---------------7-\-|
A|-2---2---2--------------------------7r-----7---------------------|
E|-----------------3---3-3-3-3/15\---------------------------------|
   1 + 2 + 3 + 4 + 1 + 2 + 3 + 4 + Triplet 3 + 4 + 1 + 2 + 3 + 4 +

2:41
G|---------------------------------------------------------7-7-7-7-|
D|-------4-5-----------2---0-------------4-5-----5-7-----7---------|
A|-2---2------5--2-0-----------4-4-2---2------5-------7------------|
E|-----------------------------------------------------------------|
   1 + 2 + Triplet 1 + 2 + 3 + 4 + 1 + 2 + Triplet Triplet 3 + 4 +

G|-----------------------------------------------------------------|
D|-------4-5-----------2-2-0-------------------------2-4---4-2-4---|
A|-2---2------5--2-0-----------4-4---------0---0---2-----2---------|
E|---------------------------------3---3---------------------------|
   1 + 2 + Triplet 1 + 2 + 3 + 4 + 1 + 2 + 3 + 4 + 1 + 2 + 3 + 4 +

Interlude
G|-----------------------------------------------------------------|
D|-----------------------------------------------------------------|
A|-----------------------------------------------------------------|
E|-7-\-------------------------------------------------------------|
   1 + 2 + 3 + 4 + 1 + 2 + 3 + 4 + 1 + 2 + 3 + 4 + 1 + 2 + 3 + 4 +

G|-----------------------------------------------------------------|
D|-----------------------------------------------------------------|
A|-----------------------------------------------------------------|
E|-----------------------------------------------------------------|
   1 + 2 + 3 + 4 + 1 + 2 + 3 + 4 + 1 + 2 + 3 + 4 + 1 + 2 + 3 + 4 +

Solo 3:06
G|-----------------------------------------------------------------|
D|-----------4-2-0-------------------------------------------------|
A|-2---2---2-----------------5-4-2-0---0-0-0-7-5-4-5---5-5-4-4-4-4-|
E|-----------------3-----3-3---------------------------------------|
   1 + 2 + 3 + 4 + 1 + 2 + 3 + 4 + 1 + 2 + 3 + 4 + 1 + 2 + 3 + 4 +

G|-----------------------------------------------------------------|
D|-----------4-2-0-------------------------------------------------|
A|-2---2---2-----------------5-4-5-0-0-4-0-0-0-0-0-0-0-0-0-0-0-0-0-|
E|-----------------3---3-3-3---------------------------------------|
   1 + 2 + 3 + 4 + 1 + 2 + 3 + 4 + 1 + 2 + 3 + 4 + 1 + 2 + 3 + 4 +

G|---------------------------------|
D|-7-7-7-7-7-7-7-7-7---5-7-2-4-2-4-|
A|-------------------7-------------|
E|---------------------------------|
   1 + 2 + 3 + 4 + 1 + 2 + 3 + 4 + 

Pre Chorus 3:21
G|-----------------------------------------------------------------|
D|-----------------------------------------------------------------|
A|-2-------------------------------0---------------5-------4-------|
E|-----------------3-----------------------------------------------|
   1 + 2 + 3 + 4 + 1 + 2 + 3 + 4 + 1 + 2 + 3 + 4 + 1 + 2 + 3 + 4 +

G|-----------------------------------------------------------------|
D|-----------------------------------------------------------------|
A|-2---2---2---2-------------------0---0---0---0-------------------|
E|-----------------3---3---3---3-----------------------------------|
   1 + 2 + 3 + 4 + 1 + 2 + 3 + 4 + 1 + 2 + 3 + 4 + 1 + 2 + 3 + 4 +

Chorus 3:34
G|-----------------------------------------------------------------|
D|-----------4-2-0-------------------------------------------------|
A|-2---2---2-----------------5-4-2-0-----0-0-7-5-4-5---5-5-4-4/9\--|
E|-----------------3-----3-3---------------------------------------|
   1 + 2 + 3 + 4 + 1 + 2 + 3 + 4 + 1 + 2 + 3 + 4 + 1 + 2 + 3 + 4 +

G|-----------------11-12----------------------------------------------------------------|
D|--------------11--------12---------------------------14-12-11-12-12-12-12-11-11-11-11-|
A|-----------12---------------9-10-9-10/14-------12-12----------------------------------|
E|--------------------------------------------------------------------------------------|
   1 + 2 + 3 +  4  +  Tri pl et 3  + 4  +  1 + 2 +  3  +  4  +  1  +  2  +  3  +  4  +

3:46
G|---------------------------------------------------------7-7-7-7-|
D|-------4-5-----------2-2-0-------------4-5-----5-7-----7---------|
A|-2---2------5--2-0-----------4-4-2-2-2------5-------7------------|
E|-----------------------------------------------------------------|
   1 + 2 + Triplet 1 + 2 + 3 + 4 + 1 + 2 + Triplet Triplet 3 + 4 +

G|-----------------------------------------------------------------|
D|-------4-5-----------2---0-0-----------------------------2-4-2-4-|
A|-2---2------5--2-0-0---------4-4---------0---0---2---2-----------|
E|---------------------------------3---3---------------------------|
   1 + 2 + Triplet 1 + 2 + 3 + 4 + 1 + 2 + 3 + 4 + 1 + 2 + 3 + 4 +

Outro 3:59
G|---------------------------------------------------------7-7-6-6-|
D|-------4-5-----------2---0-0-----------4-5-----5-7-----7---------|
A|-2-2-2------5--2-0-----------4-4-2-2-2------5-------7------------|
E|-----------------------------------------------------------------|
   1 + 2 + Triplet 1 + 2 + 3 + 4 + 1 + 2 + Triplet Triplet 3 + 4 +

G|-------------------9---------------------------------------------|
D|-------4-5-----------------------------------------------2-0-2-4-|
A|-2---2------5--2-0---7-7-5---4-----------0---0---2---2-----------|
E|---------------------------------3---3---------------------------|
   1 + 2 + Triplet 1 + 2 + 3 + 4 + 1 + 2 + 3 + 4 + 1 + 2 + 3 + 4 +

G|---------------------------------|
D|---------------------------------|
A|-------------------------0-1-2---|
E|-7-\-----------------------------|
   1 + 2 + 3 + 4 + 1 + 2 + 3 + 4 + 
Tabbed by Dave Vucko


Suggest correction
Creating personal tab
Creating personal tab
You can edit any tab online and save it as your Personal.

You can edit, replace or remove any tab part or add personal notes – all changes will be seen only by you.

Personal tabs can be accessed anytime from any device, even offline.
Learn more »
Give kudos to tab author, rate the tab!
1 2 3 4 5
comments
print report bad tab
guest
You may want to rate the tab now too:
select rating
Wanna post a correction for this tab? Suggest correction