Oops, an error
Loading. Please wait.

Anything tab

version 1
version 1

Whole song

Interactive

11,723 views 12 this week
4 commentsread comments
1 2 3 4 5
x 6
add to favorites
×
Save as Personal and add changes to this tab that will be seen only by you. Learn more ›
×
You can save this tab as Personal to edit and correct it or add notes. All changes will be seen only by you. Learn more »
launch autoscroll
font size
0
reset
how to read this tab
guitar tuner
backing track
0:00
0:00
edit
Autoscroll
slow
fast
+/-
esc
set tempo
stop
============================================================================
                      AN ENDLESS SPORADIC - ANYTHING
============================================================================


 //((((((((Nota:: Se debe afinar la guitarra correctamente(DADGBE)-)))))))\\


============================================================================
                          ROCKINGEST INTRO EVER
============================================================================

Intro Guitar II
e|-------------------------------------------------------------|
b|-------------------------------------------------------------|
g|-7-7-----7---7-7---7-7---7-7-----5-5---3-3---2-2---0---2-3-2-|
d|-7-7-----7---7-7---7-7---7-7-----3-3-x-3-3-x-3-3-x-3-x-3-3-3-|
a|-5-5-x-x-5-x-5-5-x-5-5-x-5-5-x-x-----------------------------|
d|-------------------------------------------------------------|

e|---------------------------------------------------------|
b|---------------------------------------------------------|
g|-7-7-----7---7-7---7-7---7-7-----5-5---3-3---2-2---0-0-0-|
d|-7-7-----7---7-7---7-7---7-7-----3-3-x-3-3-x-3-3-x-3-3-3-|
a|-5-5-x-x-5-x-5-5-x-5-5-x-5-5-x-x-------------------------|
d|---------------------------------------------------------|

Intro Guitar I & II
e|-------------------------------------------------------------|
b|-------------------------------------------------------------|
g|-7-7-----7---7-7---7-7---7-7-----5-5---3-3---2-2---0---2-3-2-|
d|-7-7-----7---7-7---7-7---7-7-----3-3-x-3-3-x-3-3-x-3-x-3-3-3-|
a|-5-5-x-x-5-x-5-5-x-5-5-x-5-5-x-x-----------------------------|
d|-------------------------------------------------------------|

e|-------------------------|
b|-6-6---3-----------------|
g|-5-5---2-------12-13-----|
d|-3-3---0-------11-11-----|
a|-3-3---0-------11-11-----|
d|-3-3---0---0-0-11-11-----|



============================================================================
                         AWESOMEST VERSE EVER
============================================================================


Verse Guitar I & II
e|-----------------------------------------|
b|-----------------------------------------|
g|-----------------------------------------|
d|---------------------------------------9-|
a|---11-9---9---11-9---9---11-9---9-11-12--|
d|-0------0---0------0---0------0----------|

e|-----------------------------------|
b|-----------------------------------|
g|-----------------------------------|
d|-11-----9-------11-----9-----------|
a|----8-----8--------8-----8---8---9-|
d|------0-----0-0------0-----0---0---|

e|-----------------------------------------|
b|-----------------------------------------|
g|-----------------------------------------|
d|---------------------------------------9-|
a|---11-9---9---11-9---9---11-9---9-11-12--|
d|-0------0---0------0---0------0----------|

e|---------------------------------------|
b|---------------------------------------|
g|---------------------------------------|
d|-11-----9------------------------------|
a|----8-----8-(8)\---------------6-5-----|
d|------0----------0-6---(4)-5-6-----6-5-|

e|---------------------------------------|
b|---------------------------------------|
g|---------------------------------3-----|
d|---------------------------------3-----|
a|---11-9---9---11-9---7---5---3---1-----|
d|-0------0---0------0---0---0---0-------|

......................................................
Solo Guitar II
e|--------8------10------13---12-13-12-13-12-13-12-13-|
b|----------------------------------------------------|
g|-7-\-9-----10------10-------------------------------|
d|----------------------------------------------------|
a|----------------------------------------------------|
d|----------------------------------------------------|



============================================================================
               EERIEST NON-CHORD CHORD PROGRESSIOM EVER
============================================================================


Verse Guitar I & II
e|------------------------------------------------------------------|
b|--------------------------------------------------------4---------|
g|--------7-----------7-------------7--------7----------7---7-------|
d|-----11---11-----11---11-------11-------10---10-------------------|
a|-0-0---------0-0---------0-0-0------8-8---------8-8-6-------6-4-0-|
d|-0-0---------0-0---------0-0-0------8-8---------8-8-6-------6-4-0-|

e|------------------------------------------------------------------|
b|----------------------------------------------------4------7------|
g|------7-----------7------------7----------7-------7-----10--------|
d|---11---11-----11---11-------11------10---------------------------|
a|-0---------000---------0-0-0-----8-7----8---8-8-6-----9------9\-0-|
d|-0---------000---------0-0-0-----8----------8-8-6-----9------9\-0-|

e|------------------------------------------------------------------|
b|--------------------------------------------------------4---------|
g|--------7-----------7-------------7--------7----------7---7-------|
d|-----11---11-----11---11-------11-------10---10-------------------|
a|-0-0---------0-0---------0-0-0------8-8---------8-8-6-------6-4-0-|
d|-0-0---------0-0---------0-0-0------8-8---------8-8-6-------6-4-0-|

e|------------------------------------------------------------------|
b|----------------------------------------------------4------7------|
g|------7-----------7------------7--------7---------7-----10--------|
d|---11---11-----11---11-------11------10---10----------------------|
a|-0---------000---------0-0-0-----8-8--------8-8-6-----9------9\---|
d|-0---------000---------0-0-0-----8-8--------8-8-6-----9------9\---|



============================================================================
                   SEQUEL TO THE AWESOMEST VERSE EVER 
============================================================================


Verse Guitar II
e|-----------------------------------------|
b|-----------------------------------------|
g|-----------------------------------------|
d|---------------------------------------9-|
a|---11-9---9---11-9---9---11-9---9-11-12--|
d|-0------0---0------0---0------0----------|

e|-----------------------------------|
b|-----------------------------------|
g|-----------------------------------|
d|-11-----9-------11-----9-----------|
a|----8-----8--------8-----8---8---9-|
d|------0-----0-0------0-----0---0---|

e|-----------------------------------------|
b|-----------------------------------------|
g|-----------------------------------------|
d|---------------------------------------9-|
a|---11-9---9---11-9---9---11-9---9-11-12--|
d|-0------0---0------0---0------0----------|

e|---------------------------------------|
b|---------------------------------------|
g|---------------------------------------|
d|-11-----9------------------------------|
a|----8-----8-(8)\---------------6-5-----|
d|------0----------0-6---(4)-5-6-----6-5-|

e|---------------------------------------|
b|---------------------------------------|
g|---------------------------------3-----|
d|---------------------------------3-----|
a|---11-9---9---11-9---7---5---3---1-----|
d|-0------0---0------0---0---0---0-------|

...........................................

Verse Guitar II
e|-------------------------------------------------------------------|
b|-------------------------------------------------------------------|
g|----------------------------------------------------------------16-|
d|-0-0-18--16--0-0-16--0-0-18--16-0-0-16--0-0-18--16--0-0-16-18-19---|
a|-------------------------------------------------------------------|
d|-------------------------------------------------------------------|

e|---------------------------------------------------------------|
b|---------------------------------------------------------------|
g|-18----------16-------------18----------16---------------------|
d|-----15--0-0-----15--0-0-0------15--0-0-----15--0-0-15--0-0-16-|
a|---------------------------------------------------------------|
d|---------------------------------------------------------------|

e|-------------------------------------------------------------------|
b|-------------------------------------------------------------------|
g|----------------------------------------------------------------16-|
d|-0-0-18--16--0-0-16--0-0-18--16-0-0-16--0-0-18--16--0-0-16-18-19---|
a|-------------------------------------------------------------------|
d|-------------------------------------------------------------------|

e|-----------------------------------------------------|
b|-----------------------------------------------------|
g|-18----------16---------------------------8--7-------|
d|-----15--0-0-----15--0-0-0--6----4--5--6--------6--5-|
a|-----------------------------------------------------|
d|-----------------------------------------------------|

e|-----------------------------------------------------------------|
b|-----------------------------------------------------------------|
g|-----------------------------------------------------------------|
d|-0-0-18--16--0-0-16--0-0-18--16--0--14--0--12--0--10--0--8-------|
a|-----------------------------------------------------------------|
d|-----------------------------------------------------------------|


Interlude Guitar I & II
e|-----------------------------------|
b|-----------------------------------|
g|-----------------------------------|
d|-----------------------------------|
a|-0-0-2-3---3-5-6---6-8-9---9-11-12-|
d|-0-0-2-3---3-5-6---6-8-9---9-11-12-|

e|-------------------------------------|
b|-------------------------------------|
g|-2-2-4-5---5-7-8---8-10-11--11-13-14-|
d|-0-0-2-3---3-5-6---6-8--9---9--11-12-|
a|-------------------------------------|
d|-------------------------------------|



============================================================================
                   SUSPENSION BRIGDE OF WICKEDNESS-NESS
============================================================================


Verse Guitar II
e|-0-0-------0-0-0-------0-0-0------------------------------------|
b|-0-0-------0-0-0-------0-0-0------------------------------------|
g|-2-2-------2-2-2-------2-2-2-----1010--9--9---------------------|
d|-4-4-------4-4-4-------4-4-4-----1010--10-10--------------------|
a|-----0-0-0-------0-0-0-------0-0-8-8-8-8--8-0-3---0-3-0-3-5-3-0-|
d|-----0-0-0-------0-0-0-------0-0-8-8-8-8--8-0-3---0-3-0-3-5-3-0-|

e|-0-0-------0-0-0-------0-0-0----------------------------------------|
b|-0-0-------0-0-0-------0-0-0----------------------------------------|
g|-2-2-------2-2-2-------2-2-2-----1010--9--9-------------------------|
d|-4-4-------4-4-4-------4-4-4-----1010--10-10------------------------|
a|-----0-0-0-------0-0-0-------0-0-8-8-8-8--8-0-10---10-x-3---5-3-(0)-|
d|-----0-0-0-------0-0-0-------0-0-8-8-8-8--8-0-10---10-x-3---5-3-(0)-|

e|-0-0-------0-0-0-------0-0-0------------------------------------|
b|-0-0-------0-0-0-------0-0-0------------------------------------|
g|-2-2-------2-2-2-------2-2-2-----1010--9--9---------------------|
d|-4-4-------4-4-4-------4-4-4-----1010--10-10--------------------|
a|-----0-0-0-------0-0-0-------0-0-8-8-8-8--8-0-3---0-3-0-3-5-3-0-|
d|-----0-0-0-------0-0-0-------0-0-8-8-8-8--8-0-3---0-3-0-3-5-3-0-|

e|-0-0-------0-0-0-------0-0-0--------------------------------------------------|
b|-0-0-------0-0-0-------0-0-0--------------------------------------------------|
g|-2-2-------2-2-2-------2-2-2--------------------------------------------------|
d|-4-4-------4-4-4-------4-4-4----------------0------------------------0--------|
a|-----0-0-0-------0-0-0-------0-----------8-------8----------------6--------6\-|
d|-----0-0-0-------0-0-0-------0--0--8--0-------------8--0----6--0--------------|

......................................................................

Solo Guitar I
e|-------------|--------------------------------------------------|
b|-------------|-10-10-7-7-10-10-7-7-7-10-7-7-10-10-7-7-10-10-7-7-|
g|-10-11-12-12-|--------------------------------------------------|
d|-------------|--------------------------------------------------|
a|-------------|--------------------------------------------------|
d|-------------|--------------------------------------------------|

e|--------------------------------------------------|
b|-10-10-7-7-10-10-7-7-7-10-7-7-10-10-7-7-10-10-7-7-|
g|--------------------------------------------------|
d|--------------------------------------------------|
a|--------------------------------------------------|
d|--------------------------------------------------|

e|-------------------------------------|
b|-10-6-6-6-6-10-6-6-10-6-6-6-6-10-6-6-|
g|-------------------------------------|
d|-------------------------------------|
a|-------------------------------------|
d|-------------------------------------|

e|---------------------------------------|
b|-11-11-8-8-11-8-8-8-8-11-8-8-11-8-8\10-|
g|---------------------------------------|
d|---------------------------------------|
a|---------------------------------------|
d|---------------------------------------|

e|----------------------------------------------------------------|
b|-14-12-10-14-12-10-14-12-10-14-12-10-14-12-10-14-12-10-14-12-10-|
g|----------------------------------------------------------------|
d|----------------------------------------------------------------|
a|----------------------------------------------------------------|
d|----------------------------------------------------------------|

e|--------------------------------------------------------------|
b|-14-12-10-14-12-10-14-12-10-14-11--11--11--11--13--13--13--13-|
g|--------------------------------------------------------------|
d|--------------------------------------------------------------|
a|--------------------------------------------------------------|
d|--------------------------------------------------------------|

e|-----------------------------------------------------------------|
b|-15-15-15-15-15-17-17-17-17-17-17-18----------18-20-18-----------|
g|------------------------------------17------17--------17---------|
d|--------------------------------------18--20------------18-------|
a|----------------------------------------18----------------19-18\-|
d|-----------------------------------------------------------------|



============================================================================
                         MORE CREEPY NON-CHORDS
============================================================================


Interlude Guitar I & II
e|----------------------------------------------------------------|
b|--------------------------------------------------------4-------|
g|--------7-----------7-------------7--------7----------7---7-----|
d|-----11---11-----11---11-------11-------10---10-----------------|
a|-0-0---------0-0---------0-0-0------8-8---------8-8-6-------6-4-|
d|-0-0---------0-0---------0-0-0------8-8---------8-8-6-------6-4-|



============================================================================
             PRETTIEST INTERLUDE IN THE OBSERVABLE UNIVERSE
============================================================================


Prettiest Guitar I
e|-------------0-------------------------------0---------------|
b|-------1---------1-----1---------------2-------2-----2-------|
g|-----0---0---------0-----0-----------4---4-------4-----4-----|
d|---3-------3---------3-----3-------4-------4-------4-----4---|
a|-----------------------------0---0-------------------------0-|
d|-0-----------------------------0-----------------------------|

e|-------0------0------8-8---7-----(7)\------------0--------|
b|-----6----6---6------8-8---8-----(8)\--------3------------|
g|---5----------5------9-9---7-----(7)\---------------------|
d|-0------------0-------------------------------------------|
a|-----------------------------------------0-----------0----|
d|-----------------------------------------0-----------0----|

e|---------------0---------------------0---------0-----0----|
b|---------1-----------1---------------3---3--1-----3-------|
g|-------0---0-----------0---3----------------x-------------|
d|-3-----------------------3----3---3---------3-------------|
a|-0----------------------------1---------------------------|
d|-0-----------0----------------0---------------------------|

e|------------------------------------10--10--10------10-------10--|
b|------------------------------------8---8---8-------8--------8---|
g|---------5----------------5-------0-8---8---8-------8--------8---|
d|-0-----0-----0----------0---0---6--(1)-(1)-(1)-----(1)------(1)--|
a|-----6---------6------6-------6----(1)-(1)-(1)-----(1)------(1)--|
d|---6-------------6-----------------(1)-(1)-(1)-----(1)------(1)--|

....................................................................

Guitar II
e|-------0---------0--------0------0----0-----|
b|--------2---------6--------3-----3----3-----|
g|---------4---------5--------0----0----0-----|
d|----------0---------0--------4---4----4-----|
a|--------------------------------------------|
d|-0------------------------------------------|

Synth (or Guitar II).....................................................................

e|------------------------------------------------13-15-16-15--22-15-22-15--22-15--22-15-|
b|-------18-17---------------------------13-15-16----------------------------------------|
g|-----14----------17---12-14---12-13-15-------------------------------------------------|
d|-(12)--------------15------------------------------------------------------------------|
a|---------------------------------------------------------------------------------------|
d|---------------------------------------------------------------------------------------|



============================================================================
                MOST FRANTIC MORE DIFFERENTER VERSE EVER
============================================================================


Frantic Guitar I & II
e|---------------------------------------------------------------------|
b|---------------------------------------------------------------------|
g|---------------------------------------------------------------------|
d|---------------------------------------------------------------------|
a|-11-----9----------------------11-----9-----912128--------10---------|
d|----7-0---7-0--0-0--0-0-0--0-0----7-0---7-0--------12-8-0----14-10-0-|

e|------------------------------------------------------------------------|
b|------------------------------------------------------------------------|
g|------------------------------------------------------------------------|
d|------------------------------------------------------------------------|
a|-11-----9-------------------------------11----9--------15--17--(17)\-8--|
d|----7-0---7-0---0--4-4-4-4-4-4-0---0--0---7-0---7-0-0--14--15--(15)\-8--|

e|---------------------------------------------------------------------|
b|---------------------------------------------------------------------|
g|---------------------------------------------------------------------|
d|---------------------------------------------------------------------|
a|-11-----9----------------------11-----9-----912128--------10---------|
d|----7-0---7-0--0-0--0-0-0--0-0----7-0---7-0--------12-8-0----14-10-0-|

e|--------------0--------------------------------------------|
b|--------------0--------------------------------------------|
g|--------------2--------------------------------------------|
d|--------------4--------------------------------------------|
a|-11-----9--------------6-5-------------3-----6-----9-------|
d|----7-0---7-0----0-6-7-----6-5-6-5-4---3-----6-----9-----0-|

e|---------------------------------------------------------------------|
b|---------------------------------------------------------------------|
g|---------------------------------------------------------------------|
d|---------------------------------------------------------------------|
a|-11-----9----------------------11-----9-----912128--------10---------|
d|----7-0---7-0--0-0--0-0-0--0-0----7-0---7-0--------12-8-0----14-10-0-|

e|------------------------------------------------------------------------|
b|------------------------------------------------------------------------|
g|------------------------------------------------------------------------|
d|------------------------------------------------------------------------|
a|-11-----9-------------------------------11----9--------15--17--(17)\-8--|
d|----7-0---7-0---0--4-4-4-4-4-4-0---0--0---7-0---7-0-0--14--15--(15)\-8--|

e|---------------------------------------------------------------------|
b|---------------------------------------------------------------------|
g|---------------------------------------------------------------------|
d|---------------------------------------------------------------------|
a|-11-----9----------------------11-----9-----912128--------10---------|
d|----7-0---7-0--0-0--0-0-0--0-0----7-0---7-0--------12-8-0----14-10-0-|

Interlude Guitar I
e|---------------------------------------------------------|
b|-------------------------------------13----10------------|
g|-------------------14-14---------------------11----------|
d|-------------13-13-------13-13-----------------12\13-----|
a|-------12-12-------------------12-12---------------------|
d|-12-12---------------------------------------------------|

Verse Guitar I & II
e|----------------------------------------|
b|----------------------------------------|
g|----------------------------------------|
d|--12---11---x---9----10-----6---------3-|
a|--10---11---x---7----8------4-----1-1-1-|
d|----------------------------------------|

Solo Guitar I
e|----------------------------------------|
b|----------------------------------------|
g|----------------------------------------|
d|-------------3-4-6-7-6-4-3--------------|
a|-3-5-6-3-5-6---------------6-5-3-5------|
d|----------------------------------------|



============================================================================
                 MOST RANDOM MOVIE REFERENSE GROOVE EVER
============================================================================


Verse Guitar I
e|------------------------------------------|
b|------------------------------------------|
g|------------------------------------------|
d|------------------------------------------|
a|------------------------------------------|
d|-0-0-0-12-12-12-10-10-6-6-6-6-13-13-13-13-|

e|------------------------------------------|
b|------------------------------------------|
g|------------------------------------------|
d|------------------------------------------|
a|------------------------------------------|
d|-0-0-0-12-12-12-10-10-6-6-6-6-13-13-13-15-|

e|------------------------------------------|
b|------------------------------------------|
g|------------------------------------------|
d|------------------------------------------|
a|------------------------------------------|
d|-0-0-0-12-12-12-10-10-6-6-6-6-13-13-13-13-|

Interlude Guitar I & II
e|------------------------------------------|
b|------------------------------------------|
g|--------------------4---------------------|
d|--0-----6-----3-----4--1------------------|
a|--0-----6-----3-----2--1------------------|
d|--0-----6-----3--------1------------------|

Verse Guiatr I
e|------------------------------------------|
b|------------------------------------------|
g|------------------------------------------|
d|-0-0-0-12-12-12-10-10-6-6-6-6-13-13-13-13-|
a|------------------------------------------|
d|------------------------------------------|

e|------------------------------------------|
b|------------------------------------------|
g|------------------------------------------|
d|-0-0-0-12-12-12-10-10-6-6-6-6-13-13-13-15-|
a|------------------------------------------|
d|------------------------------------------|

e|------------------------------------------|
b|------------------------------------------|
g|------------------------------------------|
d|-0-0-0-12-12-12-10-10-6-6-6-6-13-13-13-13-|
a|------------------------------------------|
d|------------------------------------------|

e|-------------------------------------|
b|-------------------------------------|
g|----10------8-----7------------------|
d|-12----10-9---8-7--------10-9-6------|
a|--------------------10-8----8-5------|
d|-------------------------------------|



============================================================================
             SOLO THAT PORTRAYS THAT LAST QUOTE QUITE NICELY
============================================================================



Solo Guitar I
e|-----------------------------------------------------------------------|
b|----------22-------18------13-----15---13----13-12-10------------------|
g|-17(17)19----19\15----15\9----/10----9----9----------12-10-9-----------|
d|-------------------------------------------------------------12-10-9---|
a|-----------------------------------------------------------------------|
d|-----------------------------------------------------------------------|

e|---------------------------------------8--12--13--10------|
b|---------------------------10-----------------------------|
g|----------12-9---10---12----------9-10--------------------|
d|-9-10--10-----------9---10------7-------------------------|
a|---------------12-------------8---------------------------|
d|----------------------------------------------------------|

e|--------10-12-15-13-12-10----------------------|
b|-11--13-------------------13-11--10------------|
g|-----------------------------------------------|
d|-----------------------------------------------|
a|-----------------------------------------------|
d|-----------------------------------------------|

.....................................................................

Verse Guitar II
e|-------------------------------------------------------------------|
b|-------------------------------------------------------------------|
g|-------------------------------------------------------------------|
d|-10----10----8-----8-----8-----7------7--------7----7----7---------|
a|-8-----8-x-x-8-----8-x-x-8-x-x-5------5------x-5----5--x-5---x-x---|
d|-8-----8-x-x-8-----8-x-x-8-x-x-5------5------x-5----5--x-5---x-x---|

e|---------------------------------------------------------------|
b|---------------------------------------------------------------|
g|---------------------------------------------------------------|
d|-7------7--------7----7----7-------10----10----10----10----10--|
a|-3------3------x-3----3--x-3---x-x-8-----8-----8-----8-----8---|
d|-3------3------x-3----3--x-3---x-x-8-----8-----8-----8-----8---|



============================================================================
                     MORE DIFFERENTER VERSE REPRISE
============================================================================


More Guitar I & II
e|---------------------------------------------------------------------|
b|(10)+++++\-----------------------------------------------------------|
g|---------------------------------------------------------------------|
d|---------------------------------------------------------------------|
a|-11-----9----------------------11-----9-----912128--------10---------|
d|----7-0---7-0--0-0--0-0-0--0-0----7-0---7-0--------12-8-0----14-10-0-|

e|------------------------------------------------------------------------|
b|------------------------------------------------------------------------|
g|------------------------------------------------------------------------|
d|------------------------------------------------------------------------|
a|-11-----9-------------------------------11----9--------15--17--(17)\-8--|
d|----7-0---7-0---0--4-4-4-4-4-4-0---0--0---7-0---7-0-0--14--15--(15)\-8--|

e|---------------------------------------------------------------------|
b|---------------------------------------------------------------------|
g|---------------------------------------------------------------------|
d|---------------------------------------------------------------------|
a|-11-----9----------------------11-----9-----912128--------10---------|
d|----7-0---7-0--0-0--0-0-0--0-0----7-0---7-0--------12-8-0----14-10-0-|

e|--------------0--------------------------------------------|
b|--------------0--------------------------------------------|
g|--------------2--------------------------------------------|
d|--------------4------------------------------------------8-|
a|-11-----9--------------6-5-------5-4---------2------1----6-|
d|----7-0---7-0----0-6-7-----6-5-4-----3---4-4----4-3--------|



============================================================================
   SOLO TAHT'S MORE DERANGED THAN THE JOKER ON METH AND COCAINE AND SPEED
============================================================================



Solo Guitar I
e|--------10-11-10----------------10-11-10----------------10-|
b|------12--------12------------12--------12------------12---|
g|-10-11------------11-10--10-11------------11-10--10-11-----|
d|-----------------------12----------------------12----------|
a|-----------------------------------------------------------|
d|-----------------------------------------------------------|

e|--------13-14-13----------------13-14-13----------------13-|
b|------15--------15------------15--------15------------15---|
g|-13-14------------14-13--13-14------------14-13--14-13-----|
d|-----------------------15----------------------15----------|
a|-----------------------------------------------------------|
d|-----------------------------------------------------------|

e|-17--------------------------17---------------------------|
b|---18-17----------------17-18--18-17----------------17-18-|
g|--------15-14------14-15------------15-14------14-15------|
d|-------------15--15----------------------15--15-----------|
a|---------------13--------------------------13-------------|
d|----------------------------------------------------------|

e|-17-17-17-17-17-17-18-18-18-18-18-18-15-----17-15-14-----------|
b|----------------------------------------------------------16---|
g|----------------------------------------------------16---------|
d|------------------------------------------------------15-------|
a|--------------------------------------------------------17-----|
d|---------------------------------------------------------------|

e|-16------------14--------------------------------------------------------|
b|-----------------12------------------------------13-15-13----------------|
g|-----14------------14----------------------12-14----------14-12----------|
d|--------12--15-------12---12---12----12-13---------------------13-12--12-|
a|-------------------------------------------------------------------------|
d|-------------------------------------------------------------------------|

e|---------------------------------------------------------|
b|-13\14--13----11-16-14-------13-11-----------------------|
g|-----------------------14-12----------14-12--------12-10-|
d|------------------------------------14-------13-11-------|
a|---------------------------------------------------------|
d|---------------------------------------------------------|

e|-------------------------------|
b|-------------------------------|
g|-------------------------------|
d|----13-11----------------------|
a|-13-------12-10-12-------10-\--|
d|-------------------------------|

...................................................................

Verse Guitar II
e|-----------------------------------------------------------------|
b|-----------------------------------------------------------------|
g|-5---------------------------7------5----------------------------|
d|-5------6------8------1------7------5------4------1-1-1-1-1-1----|
a|-7------6------8------1------5------3------4------1-1-1-1-1-1----|
d|--------6------8------1--------------------4------1-1-1-1-1-1----|



============================================================================
             GROOVINGEST SYNTH SOLO/TOM ROLL BREAKDOWN EVER
============================================================================



Groovingest Guitar I
e|---------------------------------------------------------------|
b|---------------------------------------------------------------|
g|-------5---------5--------5------------9--------7--------7-----|
d|-0-3-7-----0-3-7----0-3-7---7-3-0-7-10----0-5-9----0-5-9---9-5-|
a|---------------------------------------------------------------|
d|---------------------------------------------------------------|

e|---------------------------------------------------------------|
b|---------------------------------------------------------------|
g|-------5---------5--------5------------12-------7--------7-----|
d|-0-3-7-----0-3-7----0-3-7---7-3-0-10-14---0-5-9----0-5-9---9-5-|
a|---------------------------------------------------------------|
d|---------------------------------------------------------------|

e|---------------------------------------------------------------|
b|---------------------------------------------------------------|
g|-------5---------5--------5------------9--------7--------7-----|
d|-0-3-7-----0-3-7----0-3-7---7-3-0-7-10----0-5-9----0-5-9---9-5-|
a|---------------------------------------------------------------|
d|---------------------------------------------------------------|

e|------------------------------------------------------------------|
b|------------------------------------------------------------------|
g|-------5---------5--------5------------12--------7----------------|
d|-0-3-7-----0-3-7----0-3-7---7-3-0-10-14----0-5-9---0-7-9-10-9-7---|
a|---------------------------------------------------------------10-|
d|------------------------------------------------------------------|

.....................................................................

Synth (or Guitar II)
e|-------------------------------------------------------|
b|-------8--6--------5-----------------------8--6--5--6--|
g|----5--------5--------5--------4--5-----5--------------|
d|-7--------------7--------2--3--------7-----------------|
a|-------------------------------------------------------|
d|-------------------------------------------------------|

e|---------------------------------------------------15-13---------|
b|-10-----12-----13-----17-----15---------------15---------15------|
g|---10-----12-----14-----17-----16--16-14---14---14----------14---|
d|-----10-----14-----15-----17-----17------------------------------|
a|-----------------------------------------------------------------|
d|-----------------------------------------------------------------|

e|-12----------------------------------------------------------|
b|----13--------12--13-12-------12-13-12-------12-13-12--------|
g|--------9--10----------10-9-10--------10-9-10--------10-9-10-|
d|-------------------------------------------------------------|
a|-------------------------------------------------------------|
d|-------------------------------------------------------------|

e|-----------------------------------------|
b|-12-13-12-------12-13-12-------12--------|
g|---------10-9-10--------10-9-10--10-9----|
d|--------------------------------------12-|
a|-----------------------------------------|
d|-----------------------------------------|



============================================================================
                       MOST HECTIC PRE-OUTRO EVER
============================================================================


Verse Guitar I & II
e|----------------------------------------------------------------------|
b|----------------------------------------------------------------------|
g|----------------------------------------------------------------------|
d|-8---8-------8-8-8-------8-8------------------------------8--8-8----8-|
a|-8---8-7---7-8-8-8-7--7--8-8--7---------------------------8--8-8-7--8-|
d|-8---8-------8-8-8-------8-8----8--8--8-12-12-12-12-12-12-8--8-8----8-|

e|--------------------------------------------------------------|
b|--------------------------------------------------------------|
g|--------------------------------------------------------------|
d|--------------------------------------------------------------|
a|-9-7---------------------------9-7-----------7--------9-7-----|
d|-----8-7-0-0--0-0--0-0-7-8-0-0-----8-7-5-7-8----8-7-0-----7-8-|

                              |
e|----------------------------|---------------------------------------|
b|----------------------------|---------------------------------------|
g|----------------------------------------------------------12--------|
d|-8------8-8-8-------8-----------------12-13-12--------15--------12\-|
a|-8-7--7-8-8-8-7--7--8---/8-------12-13--------15-13-12--13------10\-|
d|-8------8-8-8-------8-------12-13-----------------------------------|

Interlude Guitar I & II
e|-0---------0---0---0---0------0---0---0----------|
b|-7---------3---3---3---3------7---8---5----------|
g|-9---------6---4---2---1------5---5---3----------|
d|-0---------0---0---0---0------0---0---0----------|
a|-0---------0---0---0---0------0---0---0----------|
d|-0---------0---0---0---0------0---0---0----------|



============================================================================
                   ROCKINGEREST OUTRO EVER TIMES TWO
============================================================================


Outro Guitar II
e|-------------------------------------------------------------|
b|-------------------------------------------------------------|
g|-7-7-----7---7-7---7-7---7-7-----5-5---3-3---2-2---0---2-3-2-|
d|-7-7-----7---7-7---7-7---7-7-----3-3-x-3-3-x-3-3-x-3-x-3-3-3-|
a|-5-5-x-x-5-x-5-5-x-5-5-x-5-5-x-x-----------------------------|
d|-------------------------------------------------------------|

................................................................
Verse Guitar I & II
e|-------------------------------------------|
b|-------------------------------------------|
g|----7---7-----------5---5------------------|
d|----7---7---6---6---5---5---4---4-----1----|
a|----5---5---6---6---3---3---4---4-----1----|
d|------------6---6-----------4---4-----1----|

e|--------------------------------------------------|
b|--------------------------------------------------|
g|--------------------------------------------------|
d|--------------------------------------------------|
a|-11-----9----11-----9----11-----9----11-----9-----|
d|----7-0---7-0---7-0---7-0---7-0---7-0---7-0---7-0-|

e|--------------------------------------------------|
b|--------------------------------------------------|
g|--------------------------------------------------|
d|--------------------------------------------------|
a|-11-----9----11-----9----11-----9----11-----9-----|
d|----7-0---7-0---7-0---7-0---7-0---7-0---7-0---7-0-|

e|-------------------------------------------------------------------------|
b|-------------------------------------------------------------------------|
g|-------------------------------------------------------------------------|
d|--------------------------------------------0----------------------------|
a|-11-----9-----11----------------------------0----------------------------|
d|----7-0---7-0----------------0--4-4-4-4-4-4-0----------------------------|
                                              >>>>>>>>>>>>>>>>>>>>>>>>>>>>>
____________________________________________________________________________
============================================================================
----------------------------------------------------------------------------
//////////////////////////////////////\\\\\\\\\\\\\\\\\\\\\\\\\\\\\\\\\\\\\\
++++++++++++++++++++++++++++++++++++++++++++++++++++++++++++++++++++++++++++
****************************************************************************

(THANKS)^^ Algunas partes son muy rápidas

by:CristoGer^^

            
            
Suggest correction
Creating personal tab
Creating personal tab
You can edit any tab online and save it as your Personal.

You can edit, replace or remove any tab part or add personal notes – all changes will be seen only by you.

Personal tabs can be accessed anytime from any device, even offline.
Learn more »
comments
print report bad tab
4 comments total. Showing first comments.
0 reply
Ginzeo 31 Mar 27, 2010 10:42 PM

Great work.

My favorite parts of the song has got to be "MOST RANDOM MOVIE REFERENcE GROOVE EVER" and "SUSPENSION BRIGDE OF WICKEDNESS-NESS."

Rofl.

0 reply
Chrigby 10 May 12, 2010 08:53 AM

Fantastic tab, you have a GREAT ear for this. I imagine this was difficult to write out. Love this song btw.

0 reply
Steveman 659 Jun 26, 2011 02:41 PM

Now that what's I like to see in a guitar tab -- some goddamn HUMOR! Nice tab, man.

guest
Wanna post a correction for this tab? Suggest correction