Oops, an error
Loading. Please wait.

Break Through Time tab

456 views 1 this week
no commentswrite comment
1 2 3 4 5
3 more votes to show rating
add to favorites
×
Save as Personal and add changes to this tab that will be seen only by you. Learn more ›
×
You can save this tab as Personal to edit and correct it or add notes. All changes will be seen only by you. Learn more »
launch autoscroll
font size
0
reset
how to read this tab
guitar tuner
edit
Autoscroll
slow
fast
+/-
esc
set tempo
stop
Break Through Time
Little Angel
Ana Johnsson

Capo 1

Dsus2: xx0230
Bm7.4: x20230
G6   : 300000
Em   : 022000

Play During the verses:

      Dsus2	  Bm7.4      G6		F#/E
e||-----------0----------0-------------------------||
B||---------3---3------3-----------0------------0--||
G||------2-----------2-----------0---0--------0----||
D||----0-----------------------0------------0------||
A||----------------2-------------------------------||
E||--------------------------3----------2-0--------||


Another time another place

A chance to start all over

I've had my share I've paid my dues

I'm slowly moving forward

I've had to learn how to forget

But I'm still living with my regrets

Chorus:

(No Play)
If I could break through time
D		 Bm7.4
I'd wipe it out come out clean
G	        A
Re-do it all like it should have been
D		 Bm7.4
I'd live it loud and chase my dreams
G	        A(let Ring)
You'd follow me if I could break through time

      Dsus2	  
e||-----------0----||
B||---------3---3--||
G||------2---------||
D||----0-----------||
A||----------------||
E||----------------||

Verse (Same As the first)Dsus2	  Bm7.4      G6		F#/E

I've failed to see, there's good in me
If only I'd know better
But in my mind I've learned to fly
High above this walls

Chorus:

If I could break through time
D		 Bm7.4
I'd wipe it out come out clean
G	        A
Re-do it all like it should have been
D		 Bm7.4
I'd live it loud and chase my dreams
G	        A
You'd follow me if I could break through time

Bridge

F#		    G	    E7        F#
No there's no making up for wasted time 
		    G	    E7         
Here's for all the loved ones I let down
F#		 G		E7
All I want is to leave the past behind
A
Make the future mine

e||-----------0----------0--------------------------||
B||---------3---3------3-----------0------------0~--||
G||------2-----------2-----------0---0--------0~----||
D||----0-----------------------0------------0~------||
A||----------------2--------------------------------||
E||--------------------------3----------2-0~--------||

If I could break through time
D		 Bm7.4
I'd wipe it out come out clean
G	        A
Re-do it all like it should have been
D		 Bm7.4
I'd live it loud and chase my dreams
G	        A
You'd follow me if I could break through time
D
Make the future mine

Ty!

            
            
Suggest correction
Creating personal tab
Creating personal tab
You can edit any tab online and save it as your Personal.

You can edit, replace or remove any tab part or add personal notes – all changes will be seen only by you.

Personal tabs can be accessed anytime from any device, even offline.
Learn more »
Give kudos to tab author, rate the tab!
1 2 3 4 5
comments
print report bad tab
guest
Wanna post a correction for this tab? Suggest correction