Oops, an error
Loading. Please wait.

We Are tab

version 1
version 1

Whole song

Interactive

6,017 views 3 this week
1 commentread comment
1 2 3 4 5
x 4
add to favorites
×
Save as Personal and add changes to this tab that will be seen only by you. Learn more ›
×
You can save this tab as Personal to edit and correct it or add notes. All changes will be seen only by you. Learn more »
launch autoscroll
font size
0
reset
how to read this tab
guitar tuner
edit
Autoscroll
slow
fast
+/-
esc
set tempo
stop
here il tab it and chord it for god sake its not even on this site
bye eddie callies (hey buy "the mess"Cd its real good)


standard tunning 
capo 4th


Em	022000
C	x32010
Am	002210
G	320033
G/F#	2x0033
Dsus2	x00230


[Verse 1]
      Em        C             Am          G    G/F#
  E|-----------------------|-----------------------|
  B|-----------------------|-----------------------|
  G|-------0---------------|-------2---------------|
  D|----2------------------|----2-----2----0-------|
  A|----------2--3---------|-0---------------------|
  E|-0---------------------|-------------3---2-----|
    See the devil on the doorstep now (my oh my)

    Em        C             Am          G    G/F#
  E|-----------------------|-----------------------|
  B|-----------------------|-----------------------|
  G|-------0---------------|-------2---------------|
  D|----2------------------|----2-----2----0-------|
  A|----------2--3---------|-0---------------------|
  E|-0---------------------|-------------3---2-----|
    Telling everybody oh just how to live their lives

    Em        C              D
  E|-----------------------|-----------------------|
  B|-----------------------|---------------0-------|
  G|-------0---------------|----2-----2----------2-|
  D|----2------------------|-0-----0---------------|	
  A|----------2--3---------|-----------------------|
  E|-0---------------------|-----------------------|
    Sliding down the information highway	
    Buying in just like a bunch of fools

    Em        C             Am          G    G/F#
  E|-----------------------|-----------------------|
  B|-----------------------|-----------------------|
  G|-------0---------------|-------2---------------|
  D|----2------------------|----2-----2----0-------|
  A|----------2--3---------|-0---------------------|
  E|-0---------------------|-------------3---2-----|
    Time is ticking and we can't go back (my oh my)

Em               C              Dsus2 	
  What about the world today	
                                    Em
  What about the place that we call home	
                  C
  We've never been so many
	    Am
  And we've never been so alone	
 	
  [Chorus]	
Em                           C
  You keep watching from your picket fence	
Dsus2
  You keep talking but it makes no sense	
      Em                C
  You say we're not responsible	
         Am          G G/F#
  But we are, we are	
Em                         C
  You wash your hands and come out clean	
Dsus2
  Fail to recognise the enemies within	
Em                      C
  You say we're not responsible	
         Am         G G/F#    
  But we are, we are

{pour le 1er refrain seulement :}
  E        C        Am       G  G/F#
  We are

  [Verse 2] 	
Em                        C               Am    G  G/F#
  One step forward making two steps back (my oh my)	
Em                    C                   Am    G  G/F#
  Riding piggy on the bad boys back for life	
Em                   C
  Lining up for the grand illusion	
Dsus2
  No answers for no questions asked	
Em                    C
  Lining up for the execution	
Am
  Without knowing why	
 	
  [Chorus]	

  [Bridge]
  C	
  It's all about power then, take control	
  Am
  Breaking the rule, breaking the soul	
  C
  They suck us dry till there's nothing left	
  Am
  My oh my, my oh my	
 	
C
  What about the world today	
Am                                     C
  What about the place that we call home	
  We' ve never been so many	
             Am                 Em     C    Am     G  G/F#
  And we've never been so alone... 
Em
  So alone	
 	
  [Chorus]	
	
  Em
  It's all about power then (we are)	
  C
  Take control (we are)	
  Dsus2
  Breaking the rule (we are, we are)	
  Breaking the soul (we are)	
       Em                        C
  They suck us dry till there's nothing left (we are, we are)	
  Am         G  G/F#
  My oh my	
     Em
  We are	
  We are (its all )	
      C
  We are	
      Dsus2
  We are, we are (take control)	
     Em
  We are	
  We are (its all )	
      C
  We are	
       Am
  It's all about power	
           G   G/F#        Em     C      Am    G  G/F#    E
  We're taking control	

            
            
Suggest correction
Creating personal tab
Creating personal tab
You can edit any tab online and save it as your Personal.

You can edit, replace or remove any tab part or add personal notes – all changes will be seen only by you.

Personal tabs can be accessed anytime from any device, even offline.
Learn more »
comments
print report bad tab
1 comment total.
0 reply
mr-eddie 10 Mar 27, 2006 07:15 AM

hey gooooood job dude its prefectisimo

guest
You may want to rate the tab now too:
select rating
Wanna post a correction for this tab? Suggest correction