Oops, an error
Loading. Please wait.

Pandemonic Hyperblast Tab

version 2
version 2

Whole song

Interactive

497 views 1 this week
no commentswrite comment
1 2 3 4 5
3 more votes to show rating
add to favorites
launch autoscroll
font size
0
reset
how to read this tab
guitar tuner
Autoscroll
slow
fast
+/-
esc
set tempo
stop
Help us to improve Ultimate-Guitar.com Take our survey!
×
Song: Pandemonic Hyperblast
Band: Anaal Nathrakh
Album: The Codex Necro
Tunning: D Standard


Riff A
|------------------------------------|
|------------------------------------|
|------------------------------------|
|------------------------------------|
|--9-9-9-7-9-9-9-7-9-9-9-7-9-9-10-10-|
|--7-7-7-5-7-7-7-5-7-7-7-5-7-7--8--8-|

Riff B
|-----------------------------------|  |----------------------------------------------|
|-----------------------------------|  |----------------------------------------------|
|-----------------------------------|  |----------------------------------------------|
|--6-6-6-5-6-6-6-5-6-6-6-5-6-6-7-7--|  |--10-10-10-10-9-9-9-9-------------------------|
|-----------------------------------|  |----------------------11-11-11-11-10-10-10-10-|
|-----------------------------------|  |----------------------------------------------|

Riff C
|------------------------------------|
|------------------------------------|
|------------------------------------|
|------------------------------------|
|--9-9-9-9-9-9-9-9-9-9-9-9-7-7-10-10-|
|--7-7-7-7-7-7-7-7-7-7-7-7-5-5--8--8-|

Riff D
|----------------------------------|
|----------------------------------|
|----------------------------------|
|----------------------------------|
|--6-6-6-4-6-6-6-4-6-6-6-4-6-6-7-7-|
|--4-4-4-2-4-4-4-2-4-4-4-2-4-4-5-5-|

Riff E
|----------------------------------|
|----------------------------------|
|----------------------------------|
|------------------3-3-3-3-3-3-3-3-|
|----------------------------------|
|--1-1-1-1-1-1-1-1-----------------|


Descending Riff
|----------------------------------|  |----------------------------------|
|----------------------------------|  |----------------------------------|
|----------------------------------|  |----------------------------------|
|------------------3-3-3-3-2-1-0-0-|  |----------------------------------|
|----------------------------------|  |--6-6-6-6-6-6-6-6-4-4-4-4-4-4-4-4-|
|--1-1-1-1-1-1-1-1-----------------|  |--4-4-4-4-4-4-4-4-2-2-2-2-2-2-2-2-|


Outro
|----------------------------------|
|----------------------------------|
|----------------------------------|
|------------------4-4-4-4-4-4-4-4-|
|----------------------------------|
|--1-1-1-1-1-1-1-1-----------------|
Suggest correction
Give kudos to tab author, rate the tab!
1 2 3 4 5
comments
print report bad tab
guest
You may want to rate the tab now too:
select rating
Wanna post a correction for this tab? Suggest correction