Oops, an error
Loading. Please wait.

Submission Is For The Weak Tab

2,402 views 1 this week
no commentswrite comment
1 2 3 4 5
excellent!
x 1
add to favorites
launch autoscroll
font size
0
reset
how to read this tab
guitar tuner
Tab Pro tools
  • play this tab
  • loop segment
  • change instrument
  • show fretboard
  • metronome
Autoscroll
slow
fast
+/-
esc
set tempo
stop
Contributor
----------------------------------------------------------------------------
Submission Is For The Weak - Anaal Nathrakh
----------------------------------------------------------------------------
Tabbed by: Sick Steve

Tuning: Down 1 step

			 
Riff 1	                 
                                x3
|--------------------------------|
|--------------------------------|
|--------------------------------|
|------10"----9"------6"---------|
|----7"-----7"---7"-8"--8"-------|
|-0------------------------------|
		        			
                                x1
|--------------------------------|
|--------------------------------|
|--------------------------------|
|------10"----9"------6"---------|
|----8"-----8"---8"-8"--8"-------|
|-1------------------------------|

Riff 2

|------------------------------------|
|------------------------------------|
|--------------------------3"--------|
|----2"------------2"----------------|
|-----------2"-----------------------|
|-0"----0"-----0"-----0"1"-----------|

Riff 3

|--------------------------------------------------|
|--------------------------------------------------|
|--------------------------------------------------|
|--------------------------------------------------|
|-2---------9---8-------7--------10--9---5—8-------|
|-0---------7---6-------5--------8---7---3--6------|
Listen to the song for the strumming pattern of this riff

Riff 4
		        
		              x3
|-------------------------------|
|-------------------------------|
|-------------------------------|
|-------------------------------|
|-----3--------2--------2--3/63-|
|-000-1----000-0----000-0--1/41-|
  ...      ...      ...

		         
		    	      x1
|-------------------------------|
|-------------------------------|
|-------------------------------|
|-------------------------------|
|-----3--------3--------3--3/63-|
|-111-1----111-1----111-1--1/41-|
  ...      ...      ...

Riff 5

|----------------------------------------------------------|
|----------------------------------------------------------|
|-10"---9"-------8"---7"------7"---6"------6"---5"---------|
|----------11"-----------9"-----------8"-----------7"------|
|----------------------------------------------------------|
|----------------------------------------------------------|
Lead type guitar under bass

| /  slide up
| \  slide down
| h  hammer-on
| p  pull-off
| ~  vibrato
| +  harmonic
| .  Mute note
| "  Trem pick



============================================================================
comments
We did not receive enough feedback on this tab! Please rate:
print report bad tab
1 2 3 4 5
I want to post or [tab]
guest
You may want to rate the tab now too:
select rating
Please do not post tabs as comments. Select "correction" instead!