Oops, an error
Loading. Please wait.

Gypsy Woman tab

version 1
version 1

Whole song

by Anarbor
6,183 views 9 this week
3 commentsread comments
1 2 3 4 5
1 last vote to show rating
add to favorites
×
Save as Personal and add changes to this tab that will be seen only by you. Learn more ›
×
You can save this tab as Personal to edit and correct it or add notes. All changes will be seen only by you. Learn more »
launch autoscroll
font size
0
reset
how to read this tab
guitar tuner
edit
Autoscroll
slow
fast
+/-
esc
set tempo
stop
Tuning (D# G# C# F# A# D#)
Verse 1
E||---------------------------------------|
B||---------------------------------------|
G||---------------------------------------|
D||4-4------4-4---------------------------| x2
A||4-4------4-4---------3-----------------|
E||2-2------2-2-----2-4--4----------------|

E||---------------------------------------|
B||---------------------------------------|
G||---------------------------------------|
D||4-4------4-4---------------------------|
A||4-4------4-4----7-9-77-9-77-9----------|
E||2-4------2-2---------------------------|
Play this part once^ both parts twice for verse 1.

Pre Chorus
E||--------------|
B||--------------|
G||----9---------|
D||9---9---------|
A||9---7---------|
E||7-------------|
(She took me to my knees...)

Chorus
E||-----------------------|
B||-----------------------|
G||------6----7-----------|
D||4-x8--6-x8-7-x8--7-----| x2
A||4-----4----5-----7-x8--|
E||2----------------5-----|

Post Chorus
E||-------------------|
B||-------------------|
G||-------------------|
D||-------------------|
A||----3-------3------|
E||-2-4-4---2-4-4-----|

Verse 2
E||---------------------------------------|
B||---------------------------------------|
G||---------------------------------------|
D||4-4------4-4---------------------------| x4
A||4-4------4-4---------3-----------------|
E||2-2------2-2-----2-4---4---------------|
Don't know the palm mute fills, sorry.

Pre chorus


Chorus


Post Chorus 2
E||-----------------------------|
B||-----------------------------|
G||-----------------------------|
D||-----------------------------|
A||----3-------3------3------3--|
E||-2-4-4---2-4-4--2-4-4--2-4-4-|

Bridge
E||-------------------------------------------------|
B||-------------------------------------------------|
G||-------14-14-14-13-13-13-11-11-11-10-10-10-11----|
D||4-4~---------------------------------------------| x2
A||4-4~---------------------------------------------|
E||2-2----------------------------------------------|
PM        . . . . . . . . . . . . . . . . . .


E||-------------------------------------------------|
B||-------------------------------------------------|
G||-------------------------------------------------|
D||-------------------------------------------------| x2
A||-------------------------------------------------|
E||22--2p00-0h55-5-77-5-77--------------------------|

E||----------------------------------|
B||----------------------------------|
G||----------------------------------|
D||4-----2----7----9-----------------| x2
A||4-x8--2-x8-7-x8-9-x8--------------|
E||2-----0----5----7-----------------|
Sorry no solo for you just rhythm.

E||----------------------|
B||----------------------|
G||----------------------|
D||----------------------| x2
A||----------------------|
E||7-7-5h7-7-5h7-7-5h7---|

E||------------------|
B||------------------|
G||------------------|
D||9~-----2~---------|
A||9~-----2~---------|
E||7~-----0~---------|
(Break me, yeah.)


Pre Final Chorus
E||-----------------------|
B||-----------------------|
G||---------7-7-----------|
D||4-4------7-7-----------|
A||4-4------5-5-----------|
E||2-2--------------------|
(Save me, she's a liar...)

Goes back into regular chorus after "i can't seem to untie"

Outro
E||--------------------------------------------------|
B||--------------------------------------------------|
G||--------------------------------------------------|
D||---------------------------------4-4----------4-4-|
A||----3-------3------3------3------4-4----------4-4-|
E||-2-4-4---2-4-4--2-4-4--2-4-4-----2-2----------2-2-|

Yeah sorry i couldn't get the lead parts i.
And remember this song is in a HALF STEP DOWN
if you wanna play it next to the song tune your guitar down
you can play it in standard just not with the song or it'll sound weird.
Comment for corrections thanks - Dan,

            
            
Suggest correction
Creating personal tab
Creating personal tab
You can edit any tab online and save it as your Personal.

You can edit, replace or remove any tab part or add personal notes – all changes will be seen only by you.

Personal tabs can be accessed anytime from any device, even offline.
Learn more »
Give kudos to tab author, rate the tab!
1 2 3 4 5
comments
print report bad tab
3 comments total.
0 reply
snowflamestr 30 Dec 13, 2010 09:13 AM

these corrections are 100% correct!!! I swear
(pre-Chorus)- after solo
e|------------------------|
B|------------------------|
G|---4----1---------------|
D|---4----2---------------|
A|---2----2---------------|
E|--------0---------------|
Bridge
PM|............................. x2
e|---------------------------------------|
B|-10-10-10-9-9-9------------------------|
G|----------------11-11-11-9-9-9---------|
D|-------------------------------11-11~--|
A|---------------------------------------|
E|---------------------------------------|
I'll post the whole lead guitar, maybe today!
Rock On!

-1 reply
Senortucan 10 Dec 31, 2010 09:47 PM

i saw your lead cover on you tube please tab the lead parts

0 reply
dandicriscia 388 Aug 11, 2012 08:18 PM

actually I never put up a cover on youtube of this song. So yeah, wrong guy.

guest
You may want to rate the tab now too:
select rating
Wanna post a correction for this tab? Suggest correction