Oops, an error
Loading. Please wait.

You And I bass

by Anarbor
2,308 views 3 this week
2 commentsread comments
1 2 3 4 5
x 5
add to favorites
×
Save as Personal and add changes to this tab that will be seen only by you. Learn more ›
×
You can save this tab as Personal to edit and correct it or add notes. All changes will be seen only by you. Learn more »
launch autoscroll
font size
0
reset
guitar tuner
edit
Autoscroll
slow
fast
+/-
esc
set tempo
stop
Author
Difficulty
-------------------------------------------------------------------------------
                                 You and I - Anarbor
-------------------------------------------------------------------------------
Tabbed by: KGKing13 
E-mail: KGaul95@hotmail.com 

Tuning: Standard

Intro (Don't play)

Interlude
G|-----------------------------------------------------------------|
D|-----------------------------------------------------------------|
A|-3-3-3-3-------------------------3-3-3-3-------------------------|
E|---------3-3-3-3-0-0-0-0-1-1-1-1---------3-3-3-3-1-1-1-1-1-1-1-1-|

1st Verse
G|-----------------------------------------------------------------|
D|-----------------------------------------------------------------|
A|-3-3-3-3-------------------------3-3-3-3-------------------------|
E|---------3-3-3-3-0-0-0-0-1-1-1-1---------3-3-3-3-1-1-1-1-1-1-1-1-|

G|-------------------------------------------------------------------|
D|-------------------------------------------------------------------|
A|-3-3-3-3-------------------------3-3-3-3---------------------------|
E|---------3-3-3-3-0-0-0-0-1-1-1-1---------3-3-3-3-1-1-1-1-1-1-5-5-3-|

1st Chorus
G|---------------------------------------------------------------|
D|---------------------------------------------------------------|
A|-3-3-----------------------------3-3---------------------------|
E|---------0-0-----1-1-----1-1-3-3---------0-0-----1-1-------1-1-|

G|-----------------------------------------------------------------|
D|-----------------------------------------------------------------|
A|-3-3-3-3---------------------------------------------------------|
E|---------0-0-0-0-5-5-5-5-3-3-3-3-1-1-1-1-1-1-1-1-3-3-3-3-3-3-3-3-|

2nd Verse
G|-----------------------------------------------------------------|
D|-----------------------------------------------------------------|
A|-3-3-3-3-------------------------3-3-3-3-------------------------|
E|---------3-3-3-3-0-0-0-0-1-1-1-1---------3-3-3-3-1-1-1-1-1-1-1-1-|

G|-------------------------------------------------------------------|
D|-------------------------------------------------------------------|
A|-3-3-3-3-------------------------3-3-3-3---------------------------|
E|---------3-3-3-3-0-0-0-0-1-1-1-1---------3-3-3-3-1-1-1-1-1-1-5-5-3-|

Repeat 1st Chorus

Interlude
G|------------------------------------------------|
D|------------------------------------------------|
A|------------------------------------------------|
E|-3-----0-----1-------------------3-----0-----1--|

Bridge
G|-----------------------------------------------------------------|
D|-----------------------------------------------------------------|
A|-----------------------------------------------------------------|
E|-3-3-3-0-0-0-1-1-1-1-1-1-1-1-5-5-3-3-3-0-0-0-1-1-1-1-1-1-1-1-1-1-|

G|-----------------|
D|-----------------|
A|-----------------|
E|-4-4-4-4-4-4-4-4-|

3rd Chorus (1:58)
      "Forever yeah, if we're together... | (2:02)...we can make it 
G|----------------------------------------|---------------------------------|
D|----------------------------------------|---------------------------------|
A|-3-3------------------------------------|---------------------------------|
E|----------------------------------------|-1-1-1-1-1-1-1-1-4-4-4-4-4-4-4-4-|

4th chorus
G|--------------------------------------------------------------|
D|--------------------------------------------------------------|
A|-4-4-----------------------------4-4----------------------8-8-|
E|---------1-1-----2-2-----2-2-4-4---------1-1-----2-2----------|

G|-----------------------------------------------------------------|
D|-----------------------------------------------------------------|
A|-4-4-4-4---------------------------------------------------------|
E|---------1-1-1-1-6-6-6-6-4-4-4-4-2-2-2-2-2-2-2-2-5-5-5-5-5-5-5-5-|

5th Chorus
G|---------------------------------------------------------------|
D|---------------------------------------------------------------|
A|-5-5-5-5-------------------------5-5-5-5-------------------9-9-|
E|---------2-2-2-2-3-3-3-3-3-3-5-5---------2-2-2-2-3-3-3-3-3-----|

G|-----------------------------------------------------------------|
D|-----------------------------------------------------------------|
A|-5-5-5-5---------------------------------------------------------|
E|---------2-2-2-2-7-7-7-7-5-5-5-5-3-3-3-3-3-3-3-3-5-5-5-5-5-5-5-5-|

Outro
G|---------------------------------------------------------------|
D|---------------------------------------------------------------|
A|-5-5-----------------------------5-5---------------------------|
E|---------2-2-----3-3-----3-3-5-5---------2-2-----3-3-----3-3-5-|

G|---------------|
D|---------------|
A|---------------|
E|-5-----2-----3~|

| /  slide up
| \  slide down
| h  hammer-on
| p  pull-off
| ~  vibrato
| +  harmonic
| x  Mute note
===============================================================================

            
            
Suggest correction
Creating personal tab
Creating personal tab
You can edit any tab online and save it as your Personal.

You can edit, replace or remove any tab part or add personal notes – all changes will be seen only by you.

Personal tabs can be accessed anytime from any device, even offline.
Learn more »
comments
print report bad tab
2 comments total.
0 reply
KGKing13 317 Jun 25, 2013 05:30 PM

Sorry. Typo. Email is KGaul95@hotmail.com

0 reply
KGKing13 317 Nov 23, 2013 05:24 AM, edited on April 7 2014, 09:03 am

After the 2nd verse, repeat the first chorus, not the intro.

guest
You may want to rate the tab now too:
select rating
Wanna post a correction for this tab? Suggest correction