Oops, an error
Loading. Please wait.

Opposition In Our Grasp tab

78 views 1 this week
1 commentread comment
1 2 3 4 5
3 more votes to show rating
add to favorites
×
Save as Personal and add changes to this tab that will be seen only by you. Learn more ›
×
You can save this tab as Personal to edit and correct it or add notes. All changes will be seen only by you. Learn more »
launch autoscroll
font size
0
reset
how to read this tab
guitar tuner
edit
Autoscroll
slow
fast
+/-
esc
set tempo
stop
-------------------------------------------------------------------------------
                         Opposition In Our Grasp - Anarchists United
-------------------------------------------------------------------------------
Tabbed by: TerrorShredder
E-mail: rekkrkvyek@gmail.com / https://www.facebook.com/Rekkrkvyek666
Anarchists United : https://www.facebook.com/pages/Anarchists-United/178341535588558
Song : https://www.youtube.com/watch?v=4-ElqKIRoLw

Decent tab, I'm pretty damn sure this is accurate because I'm the one who fucking wrote it. Enjoy.

Key:
/ = Slide Down
R = Let it ring for one more beat
P = Palm Mute
H = Pinch harmonic

Tuning: Y O U R  M O M

  Intro
D|--------------------------------------------------------------------|
A|--------------------------------------------------------------------|
F|--------------------------------------------------------------------|
C|--------------2-----------3--------0--------2-----------3--------0--|
G|-----------2-----------3--------0--------2-----------3--------0-----|
C|--12/2--2-----------3--------0--------2-----------3--------0--------|
          P  P  R     P  P     P  P     P  P  R     P  P     P  P  

D|-----------------------------------------------------------|
A|-----------------------------------------------------------|
F|-----------------------------------------------------------|
C|-----------------------------------------------------------|
G|--0--2--3-----2--3--5--2--3--0-----0--2--3-----3--2--0-----|
C|--0--2--3-----2--3--5--2--3--0-----0--2--3-----3--2--0-----|
          R                    R           R           R
  When playing this triplet fill, I count it to sixteen, then move to the next riff.
D|---------------------|
A|---------------------|
F|---------------------|
C|---------------------|
G|---------------------|
C|--000--000--000--000-| x4
    PPP  PPP  PPP  PPP  

D|---------------------|
A|---------------------|
F|---------------------|
C|---------------------|
G|---------------------|
C|---0000000000000000--| x1
     PPPPPPPPPPPPPPPP 
  Verse one, straight up thrash.
D|----------------------------------------------------------------------|
A|----------------------------------------------------------------------|
F|----------------------------------------------------------------------|
C|--7--5----8--7--7--5----8--7--7--5----8--7--7--5----3--2--------------|
G|--7--5----8--7--7--5----8--7--7--5----8--7--7--5----3--2--0--0--0-----|
C|--700500008--700700500008--700700500008--700700500003--2--0--0--0-----|
     PP PPPP    PP PP PPPP    PP PP PPPP    PP PP PPPP      P  P  R
  Verse two, "the tremolo riff"
D|------------------------------------------------------------|
A|------------------------------------------------------------|
F|------------------------------------------------------------|
C|------------------------------------------------------------|
G|--22220000333300005555000077770000555500003333000022220000--|
C|------------------------------------------------------------|

  This stave and the one before it is verse two. The entire verse two is repeated 3x.
D|-----------------------------------------|
A|-----------------------------------------|
F|-----------------------------------------|
C|-----------------------------------------| Entire verse two, repeat 3x
G|--0--0--0--0--0--0--0-----------------0--|
C|--0--0--0--0--0--0--0--000--000--000--0--| 
    P  P  P  P  P  P     PPP  PPP  PPP
  Chorus, you're doing an arpeggio of Am, C, and Em, but on the fourth fret.
D|--------------4-----------------------4-----------------------4-----------|
A|-----------5-----5-----------------5-----5-----------------4-----4--------| Don't confuse this for
F|--------6-----------6-----------4-----------4-----------4-----------4-----| sweep picking, this is
C|-----6-----------------6-----6-----------------6-----6-----------------6--| a chord arpeggio. Let the
G|--4-----------------------7-----------------------6-----------------------| strings ring while strumming
C|--------------------------------------------------------------------------| the others!
    R  R  R  R  R  R  R  R  R  R  R  R  R  R  R  R  R  R  R  R  R  R  R  R
  For an interesting variation, the first chord has G instead of F# on the 1st string, and C# on the 2nd.
D|--------------5-----------------------4-----------------------4-----------|
A|-----------4-----4-----------------5-----5-----------------4--------------|
F|--------6-----------6-----------4-----------4-----------4-----------------| Notice the 1st string has
C|-----6-----------------6-----6-----------------6-----6--------------------| 5, 4, 4 instead of 4, 4, 4
G|--4-----------------------7-----------------------6-----------------------|
C|--------------------------------------------------------------------------|
    R  R  R  R  R  R  R  R  R  R  R  R  R  R  R  R  R  R  R  R  R  R

D|--44444444444444-----444444444444444444444444444444444444444444---|
A|--55555555555555-----555555555555555555555555555544444444444444---|
F|--66666666666666-----666666666666664444444444444444444444444444---|
C|--66666666666666-----666666666666666666666666666666666666666666---|
G|--44444444444444-----444444444444447777777777777766666666666666---| x2 -- at the second time, let the
C|------------------------------------------------------------------| ending chord (Em) ring.

  Repeated intro verse, with toms and vocals in it. "Mass graves cover our land..."
D|--------------------------------------------------------------------|
A|--------------------------------------------------------------------|
F|--------------------------------------------------------------------|
C|--------------2-----------3--------0--------2-----------3--------0--|
G|-----------2-----------3--------0--------2-----------3--------0-----|
C|--12/2--2-----------3--------0--------2-----------3--------0--------|
          P  P  R     P  P     P  P     P  P  R     P  P     P  P  
  "Bodies lay scattered, across this barren wasteland"
D|-----------------------------------------------------------|
A|-----------------------------------------------------------|
F|-----------------------------------------------------------|
C|-----------------------------------------------------------|
G|--0--2--3-----2--3--5--2--3--0-----0--2--3-----3--2--0-----|
C|--0--2--3-----2--3--5--2--3--0-----0--2--3-----3--2--0-----|
          R                    R           R           R
  Play this fill only once. Not Four times.
D|---------------------|
A|---------------------|
F|---------------------|
C|---------------------|
G|---------------------|
C|--000--000--000--000-| x1
    PPP  PPP  PPP  PPP  
  Verse two again.
D|------------------------------------------------------------|
A|------------------------------------------------------------|
F|------------------------------------------------------------|
C|------------------------------------------------------------|
G|--22220000333300005555000077770000555500003333000022220000--|
C|------------------------------------------------------------|

  This time, play this verse twice, instead of thrice.
D|-----------------------------------------|
A|-----------------------------------------|
F|-----------------------------------------|
C|-----------------------------------------| Entire verse two, repeat 2x
G|--0--0--0--0--0--0--0-----------------0--|
C|--0--0--0--0--0--0--0--000--000--000--0--| 
    P  P  P  P  P  P     PPP  PPP  PPP
  Chorus is played the same way.
D|--------------4-----------------------4-----------------------4-----------|
A|-----------5-----5-----------------5-----5-----------------4-----4--------|
F|--------6-----------6-----------4-----------4-----------4-----------4-----|
C|-----6-----------------6-----6-----------------6-----6-----------------6--|
G|--4-----------------------7-----------------------6-----------------------|
C|--------------------------------------------------------------------------|
    R  R  R  R  R  R  R  R  R  R  R  R  R  R  R  R  R  R  R  R  R  R  R  R
  This is when my face itches on stage, and I cannot scratch it because I'm playing a guitar.
D|--------------5-----------------------4-----------------------4-----------|
A|-----------4-----4-----------------5-----5-----------------4--------------|
F|--------6-----------6-----------4-----------4-----------4-----------------|
C|-----6-----------------6-----6-----------------6-----6--------------------|
G|--4-----------------------7-----------------------6-----------------------|
C|--------------------------------------------------------------------------|
    R  R  R  R  R  R  R  R  R  R  R  R  R  R  R  R  R  R  R  R  R  R
  And the drum beat behind this causes my neck to hurt the next morning.
D|--44444444444444-----444444444444444444444444444444444444444444---|
A|--55555555555555-----555555555555555555555555555544444444444444---|
F|--66666666666666-----666666666666664444444444444444444444444444---|
C|--66666666666666-----666666666666666666666666666666666666666666---|
G|--44444444444444-----444444444444447777777777777766666666666666---| x2 -- at the second time, let the
C|------------------------------------------------------------------| ending chord (Em) ring.

  The "pre-bridge" to build up tension for the bridge.
D|------------------------------------------------------------------------------|
A|------------------------------------------------------------------------------|
F|------------------------------------------------------------------------------| All down strokes, as if
C|--7--7--7--7--7--7--8--8--8--8--8--8--8--8--8--8--8--8--7--7--7--7--7--7--7---| beating someone to a pulp
G|--5--5--5--5--5--5--5--5--5--5--5--5--6--6--6--6--6--6--5--5--5--5--5--5--5---|
C|--5--5--5--5--5--5--5--5--5--5--5--5--6--6--6--6--6--6--5--5--5--5--5--5--5---|
                                  P  P                                      R

D|--------------------------------|
A|--------------------------------|
F|--------------------------------| There are five french fries in between each
C|--5-----4-----5-----4-----2-----| number. These are half notes.
G|--3-----2-----3-----2-----0-----|
C|--3-----2-----3-----2-----0-----|
    R     R     R     R     R

D|-----------------------------------------|
A|-----------------------------------------|
F|-----------------------------------------|
C|-----------------------------------------|
G|--0--0--0--0--0--0--0--0--0--0--0--0--0--|
C|--0--0--0--0--0--0--0--0--0--0--0--0--0--|
    P  P        P     P     P     P
   The bridge, or the "breakdown"
D|-----------------------------------|
A|-----------------------------------|
F|-----------------------------------|
C|-----------------------------------|
G|--------------------------------2--|
C|--000--000--000-----000----000-----| x4
    PPP  PPP  PPP     PPP    PPP  H
  In order to play this, you need Lil Wayne's talent and education.
D|------------------------------------|
A|------------------------------------|
F|------------------------------------|
C|------------------------------------|
G|--000--000--0--000--000--000--0--0--|
C|--000--000--0--000--000--000--0--0--| X2
    PPP  PPP     PPP  PPP  PPP

D|--------------------------------------|
A|--------------------------------------|
F|--------------------------------------|
C|--------------------------------------|
G|--------------------------------------|
C|--0--0--0--0--0--0--0--0--0--0--0-----|
       P     P     P     P        R
  Guitar solo. Keep in mind that I made this song when I had only half a year of experience on guitar.
D|----------------------------------------------------|
A|----------------------------------------------------| Just play your 1st, 2nd, 3rd, and 4th finger
F|--4--345645675678678989-10111011121312131413141516--| and move up a fret until your 1st finger reaches
C|----------------------------------------------------| the 16th fret.
G|----------------------------------------------------|
C|----------------------------------------------------|
    H

D|---------------------|
A|--16-14-13-17-15-14--| Minor third and minor 2nd
F|---------------------| played at alternating adjacent frets.
C|---------------------|
G|---------------------|
C|---------------------| x3

  Use the same pattern as the previous stave, instead of the one before that.
D|-------------------------------------------------------------------------|
A|-------------------------------------------------------------------------|
F|--1614131513121412111311101210911981087-9768657546435--4--3--2--1--------|
C|-------------------------------------------------------------------0-----|
G|-------------------------------------------------------------------0-----|
C|-------------------------------------------------------------------0-----|
                                                         H  H  H  H  R

D|----------------------------------------------------------|
A|----------------------------------------------------------|
F|----------------------------------------------------------|
C|----------------------------------------------------0-----|
G|--0--0--0--0--0--0--0--0--0--0--0--000--0--0--0--0--0-----|
C|--0--0--0--0--0--0--0--0--0--0--0--000--0--0--0--0--0-----|
    P  P        P     P     P        PPP  P  P  P  P  R


Enjoy primitive shredding, I'm certainly not the best guitarist, but I don't suck total balls.

            
            
Suggest correction
Creating personal tab
Creating personal tab
You can edit any tab online and save it as your Personal.

You can edit, replace or remove any tab part or add personal notes – all changes will be seen only by you.

Personal tabs can be accessed anytime from any device, even offline.
Learn more »
Give kudos to tab author, rate the tab!
1 2 3 4 5
comments
print report bad tab
1 comment total.
0 reply
bbfingermaster 43 Sep 24, 2014 02:18 PM

awesome man!

guest
You may want to rate the tab now too:
select rating
Wanna post a correction for this tab? Suggest correction