Oops, an error
Loading. Please wait.

Behind The Mask Bass Tab

version 1
version 1

Whole song

Interactive

2,468 views 6 this week
2 commentsread comments
1 2 3 4 5
1 last vote to show rating
add to favorites
launch autoscroll
font size
0
reset
guitar tuner
Autoscroll
slow
fast
+/-
esc
set tempo
stop
Help us to improve Ultimate-Guitar.com Take our survey!
×
Author
Tuning
D A D G B E
Drop D Tuning (DADG)

G|-----------------------------------|
D|-----------------------------------|
A|-----------------------------------|
D|--0---3--3--5-----5--5--3--3---0---|

G|------|--------------------|
D|------|--3---2-----0---2---|
A|------|----0---0-2---2-----|
D|--00--|--------------------|

then you keep playing the first part of the riff above. listen for timing.

G|------------------------------------------------------------------------|
D|------------------------------------------------------------------------|
A|------------------------------------------------------------------------| 
D|-10-10-10-10-10-10-10-10-14-14-14-14-14-14-14-14-12-12-12-12-12-12-12-12|

This is quite an easy song. this is the FULL bass version. guitar hero
cuts off the song cuz harmonix's cover band plays it. download the real version and 
hear the full bass part.
Suggest correction
Give kudos to tab author, rate the tab!
1 2 3 4 5
comments
print report bad tab
2 comments total.
0 reply
FleaKiedis 10 Apr 02, 2007 11:22 AM

kick ass

+2 reply
music_freeke 73 Aug 24, 2007 11:08 PM

this sucks...wrong frets and your miissing parts

guest
You may want to rate the tab now too:
select rating
Wanna post a correction for this tab? Suggest correction