Oops, an error
Loading. Please wait.

Behind The Mask Tab

version 2
version 2

Whole song

Interactive

19,335 views 6 this week
20 commentsread comments
1 2 3 4 5
x 35
add to favorites
launch autoscroll
font size
0
reset
how to read this tab
guitar tuner
Autoscroll
slow
fast
+/-
esc
set tempo
stop
Help us to improve Ultimate-Guitar.com Take our survey!
×
Tuning
D A D G B E
Intro: Clean guitar

e----------------------------------------------------------------------------|
B----------------------------------------------------------------------------|
G----------------------------------------------------------------------------|
D-----0--0---0----------------0---0---0--------------0---0---0----------0----|
A----------------------------------------------------------------------------|
D---0------3----3---5-------5----5---3---3--0------0----0---3---3--5---5-----|


e----------------------------------------------------------------------------|
B----------------------------------------------------------------------------|
G----------------------------------------------------------------------------|
D-----0----0-----------------------------------------------------------------|
A----------------------------------------------------------------------------|
D---5----3----3--0-----------------------------------------------------------|


Heavier Riff: Distortion

e---------------------|--|---------------------------------------------------|
B---------------------|--|---------------------------------------------------|
G-----------0---------|--|--------3---2----0---------------------------------|
D------2--3----3-2-0--|x3|----------0---0----3--2--3-------------------------|
A--00-----------------|--|---------------------------------------------------|
D--00-----------------|--|---------------------------------------------------|
   ..

For the verse just do:

e--------|
B--------|
G--------|
D--0-0---|  Then the main distorted riff.  Listen to the song to figure out
A--0-0---|     timing.
D--0-0---|
   . .


The chorus is almost exactly the same as the clean intro with just a little bit 
rhythm and 2 or so notes taken out.

I think the high part may be played on a keyboard or a synth but if you want to put it 
guitar the notes are just:

e--------10---10-10----10---10---10---10-10----------------------------------|
B----------------------------------------------------------------------------|
G----------------------------------------------------------------------------|
D----------------------------------------------------------------------------|
A----------------------------------------------------------------------------|
D----------------------------------------------------------------------------|

And that's the song.  I've covered all the parts as far as I know and if you listen to 
song it's very easy to figure out all the rhythms and what goes where.  This is my first 
on the internet and i want some feedback so please rate!  Peace!
Suggest correction
comments
print report bad tab
20 comments total. Showing first comments.
+1 reply
alexisguitar 10 Aug 12, 2006 10:51 AM

wow!!!!!!!!!!!!thats just your first?!?!?!thats exelent!!!!

0 reply
DeMoNhUnTeRuLeS 152 Aug 19, 2006 12:29 PM

sorry to say but its not exactly hard. Good tab tho

0 reply
DeMoNhUnTeRuLeS 152 Aug 19, 2006 12:33 PM

one thing. at the high not part it goes like this.
-10--10-10--10--10--10--10-10- -22--22-22--22--22--22--22-22----
------------------------------ ---------------------------------
------------------------------ ---------------------------------
------------------------------ X2---------------------------------
------------------------------ ---------------------------------
------------------------------ ---------------------------------

guest
You may want to rate the tab now too:
select rating
Wanna post a correction for this tab? Suggest correction