Oops, an error
Loading. Please wait.

Behind The Mask Bass Tab

version 3
version 3

Whole song

Interactive

126 views 1 this week
no commentswrite comment
1 2 3 4 5
please rate
add to favorites
launch autoscroll
font size
0
reset
guitar tuner
Autoscroll
slow
fast
+/-
esc
set tempo
stop
Help us to improve Ultimate-Guitar.com Take our survey!
×
Difficulty
Tuning
novice
D A D G B E
Intro
G|-------------------------------------|
D|--0----0-3-5--5-5--5-5-5-3-3-0-------|
A|-------------------------------------|
D|-0--0-0------------------------------|

Verse
G|-----|
D|-----|
A|-----|
D|-0-0-|

Chorus
G|-------------------------------------|
D|--0----0-3-5--5-5--5-5-5-3-3-0-------|
A|-------------------------------------|
D|-0--0-0------------------------------|

Solo
G|-----------------------------------|
D|-----------------------------------|
A|-----------------------------------|
D|-----------------------------------|

Chorus

G|-------------------------------------|
D|--0----0-3-5--5-5--5-5-5-3-3-0-------|
A|-------------------------------------|
D|-0--0-0------------------------------|
Suggest correction
Give kudos to tab author, rate the tab!
1 2 3 4 5
comments
print report bad tab
guest
You may want to rate the tab now too:
select rating
Wanna post a correction for this tab? Suggest correction