Oops, an error
Loading. Please wait.

Behind The Mask Tab

version 3
version 3

Whole song

Interactive

3,461 views 1 this week
2 commentsread comments
1 2 3 4 5
x 3
add to favorites
launch autoscroll
font size
0
reset
how to read this tab
guitar tuner
Autoscroll
slow
fast
+/-
esc
set tempo
stop
Help us to improve Ultimate-Guitar.com Take our survey!
×
Author
Difficulty
Tuning
intermediate
D A D G B E
I'm sure that this is just about the way the song goes. Feel free to copy and update it.

Tuning: eBGDAD
Palm Mute *


Intro (clean):

e|--------------------------------------------------------------------|
B|--------------------------------------------------------------------|
G|--------------------------------------------------------------------|
D|------0--0-----0-----------0--0-----0-----------0--0-----0----------|
A|--------------------------------------------------------------------|
D|---0--------3-----3--5--5--------3-----3--0--0--------3-----3--5--5-|


e|--------------------------------------------------------------------|
B|--------------------------------------------------------------------|
G|--------------------------------------------------------------------|
D|---0--0-----0-------------------------------------------------------|
A|--------------------------------------------------------------------|
D|---------3----3--0--------------------------------------------------|


Distorted:


e|----------------------------|----|----------------------------------|
B|----------------------------|----|----------------------------------|
G|---------------0------------|-x3-|----3-----2-----0-----------------|
D|---------2--3-----3--2--0---|----|-------0-----0-----3--2--3--------|
A|---0--0---------------------|----|----------------------------------|
D|---0--0---------------------|----|----------------------------------|


e|----------------------------|----|----------------------------------|
B|----------------------------|----|----------------------------------|
G|---------------0------------|-x3-|----3-----2-----0-----------------|
D|---------2--3-----3--2--0---|----|-------0-----0-----3--2--3--------|
A|---0--0---------------------|----|----------------------------------|
D|---0--0---------------------|----|----------------------------------|


e|--------------------------------------------------------------------|
B|--------------------------------------------------------------------|
G|--------------------------------------------------------3-----2-----|
D|-----------------------------------------------------------0-----0--|
A|--------------------------------------------------------------------|
D|--0-0----0-0----0-0----0-0----0-0----0-0----0-0----0-0--------------|
    * *    * *    * *    * *    * *    * *    * *    * *

e|---------------|--------------------------|----|--------------------|
B|---------------|--------------------------|----|--------------------|
G|---0-----------|-------------0------------|-x3-|----3-----2-----0---|
D|------3--2--3--|-------2--3-----3--2--0---|----|-------0-----0------|
A|---------------|-0--0---------------------|----|--------------------|
D|---------------|-0--0---------------------|----|--------------------|


e|------------|--------------------------|----|-----------------------|
B|------------|--------------------------|----|-----------------------|
G|------------|-------------0------------|-x3-|----3-----2-----0------|
D|---3--2--3--|-------2--3-----3--2--0---|----|-------0-----0---------|
A|------------|-0--0---------------------|----|-----------------------|
D|------------|-0--0---------------------|----|-----------------------|


e|--------------------------------------------------------------------|
B|--------------------------------------------------------------------|
G|--------------------------------------------------------------------|
D|---3--2--3----------------------------------------------------------|
A|--------------------------------------------------------------------|
D|--------------------------------------------------------------------|


Chorus (Distorted):



e|--------------------------------------------------------------------|
B|--------------------------------------------------------------------|
G|--------------------------------------------------------------------|
D|------0--0-----0-----------0--0-----0-----------0--0-----0----------|
A|--------------------------------------------------------------------|
D|---0--------3-----3--5--5--------3-----3--0--0--------3-----3--5--5-|


e|--------------------------------------------------------------------|
B|--------------------------------------------------------------------|
G|--------------------------------------------------------------------|
D|---0--0-----0-------------------------------------------------------|
A|--------------------------------------------------------------------|
D|---------3----3--0--------------------------------------------------|


e|--------------------------------------------------------------------|
B|--------------------------------------------------------------------|
G|--------------------------------------------------------------------|
D|------0--0-----0-----------0--0-----0-----------0--0-----0----------|
A|--------------------------------------------------------------------|
D|---0--------3-----3--5--5--------3-----3--0--0--------3-----3--5--5-|


e|--------------------------------------------------------------------|
B|--------------------------------------------------------------------|
G|--------------------------------------------------------------------|
D|---0--0-----0-------------------------------------------------------|
A|--------------------------------------------------------------------|
D|---------3----3--0--------------------------------------------------|





e|--------------------------------------------------------------------|
B|--------------------------------------------------------------------|
G|--------------------------------------------------------3-----2-----|
D|-----------------------------------------------------------0-----0--|
A|--------------------------------------------------------------------|
D|--0-0----0-0----0-0----0-0----0-0----0-0----0-0----0-0--------------|
    * *    * *    * *    * *    * *    * *    * *    * *

e|---------------|--------------------------|----|--------------------|
B|---------------|--------------------------|----|--------------------|
G|---0-----------|-------------0------------|-x3-|----3-----2-----0---|
D|------3--2--3--|-------2--3-----3--2--0---|----|-------0-----0------|
A|---------------|-0--0---------------------|----|--------------------|
D|---------------|-0--0---------------------|----|--------------------|


e|------------|--------------------------|----|-----------------------|
B|------------|--------------------------|----|-----------------------|
G|------------|-------------0------------|-x3-|----3-----2-----0------|
D|---3--2--3--|-------2--3-----3--2--0---|----|-------0-----0---------|
A|------------|-0--0---------------------|----|-----------------------|
D|------------|-0--0---------------------|----|-----------------------|


e|--------------------------------------------------------------------|
B|--------------------------------------------------------------------|
G|--------------------------------------------------------------------|
D|---3--2--3----------------------------------------------------------|
A|--------------------------------------------------------------------|
D|--------------------------------------------------------------------|




Chorus (Distorted):



e|--------------------------------------------------------------------|
B|--------------------------------------------------------------------|
G|--------------------------------------------------------------------|
D|------0--0-----0-----------0--0-----0-----------0--0-----0----------|
A|--------------------------------------------------------------------|
D|---0--------3-----3--5--5--------3-----3--0--0--------3-----3--5--5-|


e|--------------------------------------------------------------------|
B|--------------------------------------------------------------------|
G|--------------------------------------------------------------------|
D|---0--0-----0-------------------------------------------------------|
A|--------------------------------------------------------------------|
D|---------3----3--0--------------------------------------------------|


e|--------------------------------------------------------------------|
B|--------------------------------------------------------------------|
G|--------------------------------------------------------------------|
D|------0--0-----0-----------0--0-----0-----------0--0-----0----------|
A|--------------------------------------------------------------------|
D|---0--------3-----3--5--5--------3-----3--0--0--------3-----3--5--5-|


e|--------------------------------------------------------------------|
B|--------------------------------------------------------------------|
G|--------------------------------------------------------------------|
D|---0--0-----0-------------------------------------------------------|
A|--------------------------------------------------------------------|
D|---------3----3--0--------------------------------------------------|



This part is made by a synthesizer but I enjoy playing it.


e|--20---20---20---20-20-20---20---20-20------------------------------|
B|--------------------------------------------------------------------|
G|--------------------------------------------------------------------|
D|--------------------------------------------------------------------|
A|--------------------------------------------------------------------|
D|--------------------------------------------------------------------|


e|--20---20---20---20-20-20---20---20-20------------------------------|
B|--------------------------------------------------------------------|
G|--------------------------------------------------------------------|
D|--------------------------------------------------------------------|
A|--------------------------------------------------------------------|
D|--------------------------------------------------------------------|


Then just chorus it out until the end of the song.

Suggest correction
Give kudos to tab author, rate the tab!
1 2 3 4 5
comments
print report bad tab
2 comments total.
+1 reply
ccg93 10 Feb 15, 2008 06:42 PM

Great tab!!

0 reply
lunetico 41 Apr 20, 2009 03:27 PM

100% for sure

guest
You may want to rate the tab now too:
select rating
Wanna post a correction for this tab? Suggest correction