Oops, an error
Loading. Please wait.

Blood Doll Bass Tab

1,232 views 1 this week
no commentswrite comment
1 2 3 4 5
please rate
add to favorites
launch autoscroll
font size
0
reset
guitar tuner
Autoscroll
slow
fast
+/-
esc
set tempo
stop
Help us to improve Ultimate-Guitar.com Take our survey!
×
Author
Difficulty
Tuning
novice
D A D G B E
Anarchy Club - Blood Doll

Intro (follow the rhythm guitar)
G|---------------------------------|
D|---------------------------------|
A|---------------------------------|
D|-0-0-0-0-0-0-0-0-0-0-0-0-0-0-0-0-|

Verse x2
G|---------------------------------|---------------------------------|
D|---------------------------------|---------------------------------|
A|---------------------------------|---------------------------------|
D|-0-0-6-0-0-5-0-0-2-3-0-0-0-0-3-2-|-0-0-6-0-0-5-0-0-2-3-0-0-0-0-0-0-|

Pre-Chorus 1
G|-----------------|
D|-----------------|
A|-----------------|
D|-3-3-3-3-6-6-6-6-|

Chorus                        Rpt x3
G|---------------------------------|---------------------------------|
D|*-------------------------------*|---------------------------------|
A|*1-1-1-1---3-4-3-----4-------6--*|-1-1-1-1---3-4-3-----4-------3---|
D|-------------------4---4---6---6-|-------------------4---4---3---3-|

Repeat Intro
Verse x2

Pre-Chorus 2
G|-----------------|
D|-----------------|
A|-----------------|
D|-3-3-3-3-x-x-x-x-|

Chorus x2

Solo                                                            Rpt x2
G|---------------------------------|---------------------------------|
D|*--------------------------------|--------------------------------*|
A|*--------------------------------|--------------------------------*|
D|-7~--------------8~--------------|-4~--------------5~--------------|

G|---------------------------------|---------------------------------|
D|---------------------------------|---------------------------------|
A|---------------------------------|---------------------------------|
D|-7~------------0-8~------------0-|-4~------------0-5~------------0-|

G|---------------------------------|---------------------------------|
D|---------------------------------|---------------------------------|
A|---------------------------------|---------------------------------|
D|-7-7---0-7-7---0-8-8---0-8-8---0-|-4-4---0-4-4---0-3-3-3-3-6-6-6-6-|

Chorus x3
Suggest correction
What's this?
You can suggest a correction to this tab. Community and Mods will review your correction and vote to approve or reject it.
comments
We did not receive enough feedback on this tab! Please rate:
print report bad tab
1 2 3 4 5
guest
You may want to rate the tab now too:
select rating
Please do not post tabs as comments. Select "correction" instead!