Oops, an error
Loading. Please wait.

Blood Doll Tab

version 2
version 2

Whole song

5,318 views 1 this week
2 commentsread comments
1 2 3 4 5
excellent!
x 8
add to favorites
launch autoscroll
font size
0
reset
how to read this tab
guitar tuner
Autoscroll
slow
fast
+/-
esc
set tempo
stop
Help us to improve Ultimate-Guitar.com Take our survey!
×
Author
Tuning
D A D G B E
----------------------------------------------------------------------------
            Blood Doll - Anarchy Club
----------------------------------------------------------------------------
Tabbed by: HarmonyStrat
Email:Fragglerock085@verizon.net

Tuning:Drop D

Intro    Guitar 1
e|----------------------------------------|
B|----------------------------------------|
G|----7-777-777-777-8----7--777-777-777-5-|
D|----------------------------------------|x2
A|----------------------------------------|
D|----------------------------------------|

Guitar 2 (comes in after guitar 1 plays its part once)
e|-------------------------------|
B|-------------------------------|
G|-------------------------------|x2
D|0-0-0-0-0-0-0-0-0-0-0-0-0-0-0-0|
A|0-0-0-0-0-0-0-0-0-0-0-0-0-0-0-0|
D|0-0-0-0-0-0-0-0-0-0-0-0-0-0-0-0|
      
Verse    Riff A   Riff order A-B-A-C
e|-----------------------------------|
b|-----------------------------------|
G|-----------------------------------|
D|-0-0-6-0-0-5-0-0-2-3-0-0-0-0-3-2---|
A|-0-0-6-0-0-5-0-0-2-3-0-0-0-0-3-2---|
D|-0-0-6-0-0-5-0-0-2-3-0-0-0-0-3-2---|

    Riff B
e|--------------------------------------|
B|--------------------------------------|
G|--------------------------------------|
D|--0-0-6-0-0-5-0-0-2-3-0-0-0-0-0-0-----|
A|--0-0-6-0-0-5-0-0-2-3-0-0-0-0-0-0-----|
D|--0-0-6-0-0-5-0-0-2-3-0-0-0-0-0-0-----|

Riff C
e|-----------------------------------------------------|
B|-----------------------------------------------------|
G|-----------------------------------------------------|
D|--0-0-6-0-0-5-0-0-2-3-0-0-0-0-0-0--3-3-3-3-6-6-6-6---|
A|--0-0-6-0-0-5-0-0-2-3-0-0-0-0-0-0--3-3-3-3-6-6-6-6---|
D|--0-0-6-0-0-5-0-0-2-3-0-0-0-0-0-0--3-3-3-3-6-6-6-6---|

   Chorus                           4th time end on 
e|----------------------------------|      --------------
B|-----10---------------------------|      --------------
G|-----10---------------------------|      --------------
D|-----8---8-10-11-10----4------6---|x3    ---4------3---
A|-----8---8-10-11-10----4------6---|      ---4------3---
D|--8------8-10-11-10--4---4--6---6-|      -4---4--3---3-

   Bridge thing? Only play after first chorus ends
e|----------------------------------------------|
B|----------------------------------------------|
G|------7-777-777-777-8----7--777-777-777-5-----|
D|----------------------------------------------|
A|----------------------------------------------|
D|----------------------------------------------|

   Guitar 2
e|---------------------------------------|
B|---------------------------------------|
G|---------------------------------------|
D|---0-0-0-0-0-0-0-0-0-0-0-0-0-0-0-0-----|
A|---0-0-0-0-0-0-0-0-0-0-0-0-0-0-0-0-----|
D|---0-0-0-0-0-0-0-0-0-0-0-0-0-0-0-0-----|

Verse x1 
Chorus x2 
Solo (sorry havent worked it out yet)
Chorus x 4


| /  slide up
| \  slide down
| h  hammer-on
| p  pull-off
| ~  vibrato
| +  harmonic
| x  Mute note
===========================================================================
Suggest correction new What's this?
You can suggest a correction to this tab. Community and Mods will review your correction and vote to approve or reject it.
comments
print report bad tab
2 comments total.
0 reply
Dark Raven X 988 wrote on June 24 2008, 05:42 am

Thank god. That other one was total bull. >_<

This is pretty much right on. Nice one man.

...and anyone else think it sounds just like Slither by VR?

0 reply
LPBTDTfreak 71 wrote on July 21 2010, 07:17 pm

Intro Guitar 1
e|----------------------------------------|
B|----------------------------------------|
G|----7-777-777-777-8----7--777-777-777-5-|
D|----------------------------------------|x2
A|----5-555-555-555-6----5--555-555-555-3-|
D|----------------------------------------|

it should be that

guest
You may want to rate the tab now too:
select rating
Please do not post tabs as comments. Select "correction" instead!