Oops, an error
Loading. Please wait.

Collide Acoustic Tab

3,926 views 1 this week
4 commentsread comments
1 2 3 4 5
1 last vote to show rating
add to favorites
launch autoscroll
font size
0
reset
how to read this tab
guitar tuner
Autoscroll
slow
fast
+/-
esc
set tempo
stop
Help us to improve Ultimate-Guitar.com Take our survey!
×
Author
Difficulty
novice
Hey yo, first tab. Every Collide tab omits this section, which is a shame since it's the 
part of the song. Thanks to Chris Lingo for giving me the chord structure. I just 
it out a little. :3

e  -----------------------------------------------------------------------|
B  -----------------------------------------------------------------------|
G  -------0----------0--------0---------0------0--------------------------|
D  -----7---------10--------5---------5------5---5-3----------------------|
A  ---5---------8---------3---------2----2/3------------------------------|
D  -----------------------------------------------------------------------|
[Repeat once]

e  ------------------------------------------------------------------------|
B  ------------------------------------------------------------------------|
G  -------0-----0----------0------0----------0-----0---------0-------0-----|
D  -----7-----7-----7---10-----10-----10---5-----5-----5---5-------5---5-3-|
A  ---5-----5-----5---8------8------8----3-----3-----3---2-----2/3---------|
D  ------------------------------------------------------------------------|
[Repeat once]

e  -------|
B  -------|
G  -------|
D  ---3-5-|
A  ---3-5-|
D  ---3-5-|
[Electric Solo starts here]

---
[DRX] ~ "Time and tide, our worlds collide, tomorrow comes tonight..."
Suggest correction
Give kudos to tab author, rate the tab!
1 2 3 4 5
comments
print report bad tab
4 comments total. Showing first comments.
0 reply
CJ4 30 Aug 26, 2007 02:19 AM

awesome... sounds great!

0 reply
Dave291 103 Aug 29, 2007 06:04 PM

nice tab

0 reply
afromonkeyR0X 393 Mar 20, 2008 11:23 PM

"our worlds collide, tomorrow comes today!"

guest
You may want to rate the tab now too:
select rating
Wanna post a correction for this tab? Suggest correction