Oops, an error
Loading. Please wait.

Collide Tab

version 1
version 1

Intro

Whole song

Interactive

2,871 views 1 this week
10 commentsread comments
1 2 3 4 5
accurate
x 3
add to favorites
launch autoscroll
font size
0
reset
how to read this tab
guitar tuner
Tab Pro tools
  • play this tab
  • loop segment
  • change instrument
  • show fretboard
  • metronome
×
Best way to learn
"Collide"
Autoscroll
slow
fast
+/-
esc
set tempo
stop
Contributor
Tuning
D A D G B E
Collide 
by The Anarchy Club

Tabbed by ZackWell


Intro

e|-------------------|
B|-------------------|
G|-------------------| x2
D|-------------------|
A|-2-0-0-2-0-2-0-2---|
D|-2-0-0-2-0-2-0-2---|


Verse

e|----------------------|
B|----------------------|
G|----------------------| x2 
D|----------------------|
A|-2-0-0-2-0-2-0-2-0-2-0|
D|-2-0-0-2-0-2-0-2-0-2-0|

e|----------------------|
B|----------------------|
G|----------------------| x2
D|----------------------|
A|-2-0-0-2-0-2-0-2-3-2--|
D|-2-0-0-2-0-2-0-2-3-2--|
     * *   *   *
e|----------------------|----------------------|
B|----------------------|----------------------|
G|----------------------|----------------------|
D|----------------------|----------------------|
A|-3-0-0-3-0-3-0-3-5-3--|-3-0-0-3-0-3-0-5-0-3--|
D|-3-0-0-3-0-3-0-3-5-3--|-3-0-0-3-0-3-0-5-0-3--|

E--------------------------------|
B--------------------------------|
G--------------------------------|
D-7-5-7-8--7-5-3--0-3-0-3-0-3-0--|
A-7-5-7-8--7-5-3--0-3-0-3-0-3-0--|
D-7-5-7-8--7-5-3--0-3-0-3-0-3-0--|

| /  slide up
| \  slide down
| h  hammer-on
| p  pull-off
| ~  vibrato
| +  harmonic
| x  Mute note
| *  Palm Mute
============================================================================
comments
We did not receive enough feedback on this tab! Please rate:
print report bad tab
1 2 3 4 5
10 comments total. Showing first comments.
0 reply
whereami24 wrote on March 25 2007, 08:28 pm

hey i figured out the other part for the chorus it goes like this

E-------------------------------------------------------------
B-------------------------------------------------------------
G------------------------------------------------repeat a couple times
D-7-5-7-8-7-5-3-3--5-5-3-5-3----------------------------------
A-7-5-7-8-7-5-3-3--5-5-3-5-3----------------------------------
D-7-5-7-8-7-5-3-3--5-5-3-5-3----------------------------------

you should be able to get the rhythm. i just figured this out. it could be wrong but its pretty close. enjoy =)

whereami24

0 reply
Guitar-Boy-666 wrote on April 11 2007, 06:35 pm

No it isn't wrong it sounds great. Great tabs. I hope someone can get the rest too. It'd be a help lol

0 reply
whereami24 wrote on April 23 2007, 08:43 pm

thanx. im still working on that other part. well the solo for the most part is the only thing i dont have down. do you have any idea where it starts? i should be able to figure it out from there.

I want to post or [tab]
guest
You may want to rate the tab now too:
select rating
Please do not post tabs as comments. Select "correction" instead!