Oops, an error
Loading. Please wait.

Collide Tab

version 2
version 2

Intro

Whole song

Interactive

1,823 views 1 this week
7 commentsread comments
1 2 3 4 5
x 5
add to favorites
launch autoscroll
font size
0
reset
how to read this tab
guitar tuner
Autoscroll
slow
fast
+/-
esc
set tempo
stop
Help us to improve Ultimate-Guitar.com Take our survey!
×
Difficulty
Tuning
novice
D A D G B E
I found out most of the song, but not the solo. Its more of a rhythm guitar.
Hope u like it.

by:Chris Compositor

| /  slide up
| \  slide down
| h  hammer-on
| p  pull-off
| ~  vibrato
| +  harmonic
| x  Mute note
| *  Palm Mute



Intro

e|-------------------|
B|-------------------|
G|-------------------| x2
D|-------------------|
A|-2-0-0-2-0-2-0-2---|
D|-2-0-0-2-0-2-0-2---|


Verse

e|----------------------|
B|----------------------|
G|----------------------| x2 
D|----------------------|
A|-2-0-0-2-0-2-0-2-0-2-0|
D|-2-0-0-2-0-2-0-2-0-2-0|

e|----------------------|
B|----------------------|
G|----------------------| x2
D|----------------------|
A|-2-0-0-2-0-2-0-2-3-2--|
D|-2-0-0-2-0-2-0-2-3-2--|
     * *   *   *
e|----------------------|----------------------|
B|----------------------|----------------------|
G|----------------------|----------------------|
D|----------------------|----------------------|
A|-3-0-0-3-0-3-0-3-5-3--|-3-0-0-3-0-3-0-5-0-3--|
D|-3-0-0-3-0-3-0-3-5-3--|-3-0-0-3-0-3-0-5-0-3--|

e|----------------------|
B|----------------------|
G|----------------------| x2
D|----------------------|
A|-2-0-0-2-0-2-0-2-3-2--|
D|-2-0-0-2-0-2-0-2-3-2--|
     * *   *   *
e|----------------------|----------------------|
B|----------------------|----------------------|
G|----------------------|----------------------|
D|----------------------|----------------------|
A|-3-0-0-3-0-3-0-3-5-3--|-3-0-0-3-0-3-0-5-0-3--|
D|-3-0-0-3-0-3-0-3-5-3--|-3-0-0-3-0-3-0-5-0-3--|


Chorus

e|--------------------------|
B|--------------------------|
G|--------------------------| x3
D|--------------------------|
A|-7-5-7/8-7-5-3-3-5-5-0-5-0|
D|-7-5-7/8-7-5-3-3-5-5-0-5-0|

e|---------------------|
B|---------------------|
G|---------------------|
D|---------------------|
A|-7-5-7/8-7-5-3-3-5-0-|
D|-7-5-7/8-7-5-3-3-5-0-|


Repeat Verse

e|----------------------|
B|----------------------|
G|----------------------| x2 
D|----------------------|
A|-2-0-0-2-0-2-0-2-0-2-0|
D|-2-0-0-2-0-2-0-2-0-2-0|

e|----------------------|
B|----------------------|
G|----------------------| x2
D|----------------------|
A|-2-0-0-2-0-2-0-2-3-2--|
D|-2-0-0-2-0-2-0-2-3-2--|
     * *   *   *
e|----------------------|----------------------|
B|----------------------|----------------------|
G|----------------------|----------------------|
D|----------------------|----------------------|
A|-3-0-0-3-0-3-0-3-5-3--|-3-0-0-3-0-3-0-5-0-3--|
D|-3-0-0-3-0-3-0-3-5-3--|-3-0-0-3-0-3-0-5-0-3--|

e|----------------------|
B|----------------------|
G|----------------------| x2
D|----------------------|
A|-2-0-0-2-0-2-0-2-3-2--|
D|-2-0-0-2-0-2-0-2-3-2--|
     * *   *   *
e|----------------------|----------------------|
B|----------------------|----------------------|
G|----------------------|----------------------|
D|----------------------|----------------------|
A|-3-0-0-3-0-3-0-3-5-3--|-3-0-0-3-0-3-0-5-0-3--|
D|-3-0-0-3-0-3-0-3-5-3--|-3-0-0-3-0-3-0-5-0-3--|


Repeat Chorus

e|--------------------------|
B|--------------------------|
G|--------------------------| x3
D|--------------------------|
A|-7-5-7/8-7-5-3-3-5-5-0-5-0|
D|-7-5-7/8-7-5-3-3-5-5-0-5-0|

e|---------------------|
B|---------------------|
G|---------------------|
D|---------------------|
A|-7-5-7/8-7-5-3-3-5-0-|
D|-7-5-7/8-7-5-3-3-5-0-|

break for acoustic solo

comeback in on distorted solo

e|------|
B|------|
G|------|
D|------|
A|-3--5-|
D|-3--5-|

e|--------------------------|
B|--------------------------|
G|--------------------------| x3
D|--------------------------|
A|-7-5-7/8-7-5-3-3-5-5-0-5-0|
D|-7-5-7/8-7-5-3-3-5-5-0-5-0|

e|---------------------|
B|---------------------|
G|---------------------|
D|---------------------|
A|-7-5-7/8-7-5-3-3-5-0-|
D|-7-5-7/8-7-5-3-3-5-0-|


Verse

e|----------------------|
B|----------------------|
G|----------------------| x2
D|----------------------|
A|-2-0-0-2-0-2-0-2-3-2--|
D|-2-0-0-2-0-2-0-2-3-2--|
     * *   *   *
e|----------------------|----------------------|
B|----------------------|----------------------|
G|----------------------|----------------------|
D|----------------------|----------------------|
A|-3-0-0-3-0-3-0-3-5-3--|-3-0-0-3-0-3-0-5-0-3--|
D|-3-0-0-3-0-3-0-3-5-3--|-3-0-0-3-0-3-0-5-0-3--|

e|----------------------|
B|----------------------|
G|----------------------| x2
D|----------------------|
A|-2-0-0-2-0-2-0-2-3-2--|
D|-2-0-0-2-0-2-0-2-3-2--|
     * *   *   *
e|----------------------|----------------------|
B|----------------------|----------------------|
G|----------------------|----------------------|
D|----------------------|----------------------|
A|-3-0-0-3-0-3-0-3-5-3--|-3-0-0-3-0-3-0-5-0-3--|
D|-3-0-0-3-0-3-0-3-5-3--|-3-0-0-3-0-3-0-5-0-3--|


Chorus

e|--------------------------|
B|--------------------------|
G|--------------------------| x3
D|--------------------------|
A|-7-5-7/8-7-5-3-3-5-5-0-5-0|
D|-7-5-7/8-7-5-3-3-5-5-0-5-0|

e|---------------------|
B|---------------------|
G|---------------------|
D|---------------------|
A|-7-5-7/8-7-5-3-3-5-0-|
D|-7-5-7/8-7-5-3-3-5-0-|

e|--------------------------|
B|--------------------------|
G|--------------------------| x3
D|--------------------------|
A|-7-5-7/8-7-5-3-3-5-5-0-5-0|
D|-7-5-7/8-7-5-3-3-5-5-0-5-0|

e|---------------------|
B|---------------------|
G|---------------------|
D|---------------------|
A|-7-5-7/8-7-5-3-3-5-0-|
D|-7-5-7/8-7-5-3-3-5-0-|

Outro

e|-------------------|
B|-------------------|
G|-------------------| x2
D|-------------------|
A|-2-0-0-2-0-2-0-2---|
D|-2-0-0-2-0-2-0-2---|

There you go. Live and Let Rock!
============================================================================
Suggest correction
comments
print report bad tab
7 comments total. Showing first comments.
0 reply
whereami24 10 Apr 23, 2007 08:47 PM

chorus is off and so is the main riff. listen to the song then listen to what your sounds like. its no good!

0 reply
Guitar-Boy-666 10 May 04, 2007 03:23 PM

chorus isn't off you idiot

0 reply
AgentHappyDay 10 Jul 12, 2007 01:16 AM

your palm mutes are off..

guest
You may want to rate the tab now too:
select rating
Wanna post a correction for this tab? Suggest correction