Oops, an error
Loading. Please wait.

Get Clean Tab

7,105 views 7 this week
4 commentsread comments
1 2 3 4 5
excellent!
x 3
add to favorites
launch autoscroll
font size
0
reset
how to read this tab
guitar tuner
Tab Pro tools
  • play this tab
  • loop segment
  • change instrument
  • show fretboard
  • metronome
×
Best way to learn
"Get Clean"
Autoscroll
slow
fast
+/-
esc
set tempo
stop
Contributor
Difficulty
Tuning
intermediate
D A D G B E
Song: Get Clean
Band: Anarchy Club
Album: Art Of War

Intro x4
e|-----------------------------------|
B|-----------------------------------|
G|-----------------------------------|
D|-----------------------------------|
A|-1312p0-0-1210p0-0-10p8p0-0-8p7p0-0|
D|-----------------------------------|

Verse 1 (guitar 1) *repeat this riff along with guitar 2
e|-----------------------------------|-----------------------------------|
B|-----------------------------------|-----------------------------------|
G|-----------------------------------|-----------------------------------|
D|-----------------------------------|-----------------------------------|
A|-1312p0-0-1210p0-0-10p8p0-0-8p7p0-0|-1312p0-0-1210p0-0-10p8p0-0-8p7p0-0|
D|-----------------------------------|-----------------------------------|
(guitar 2)
e|-----------------|-----------------|-----------------|-----------------|
B|-----------------|-----------------|-----------------|-----------------|
G|-----------------|-----------------|-----------------|-----------------|
D|-2~--------------|(2)--------------|-0~--------------|-5~------0~------|
A|-2~--------------|(2)--------------|-0~--------------|-5~------0~------|
D|-2~--------------|(2)--------------|-0~--------------|-5~------0~------|

e|-----------------|-----------------|-----------------|-----------------|
B|-----------------|-----------------|-----------------|-----------------|
G|-----------------|-----------------|-----------------|-----------------|
D|-2~--------------|(2)--------------|-0~--------------|(0)--------------|
A|-2~--------------|(2)--------------|-0~--------------|(0)--------------|
D|-2~--------------|(2)--------------|-0~--------------|(0)--------------|

(both guitars)
e|-----------------|-----------------|-----------------|-----------------|
B|-----------------|-----------------|-----------------|-----------------|
G|-----------------|-----------------|-----------------|-----------------|
D|-2~--------------|(2)--------------|-0~--------------|-5~------0~------|
A|-2~--------------|(2)--------------|-0~--------------|-5~------0~------|
D|-2~--------------|(2)--------------|-0~--------------|-5~------0~------|

(guitar 1) *repeat this riff along with guitar 2
e|-----------------------------------|-----------------------------------|
B|-----------------------------------|-----------------------------------|
G|-----------------------------------|-----------------------------------|
D|-----------------------------------|-----------------------------------|
A|-1312p0-0-1210p0-0-10p8p0-0-8p7p0-0|-1312p0-0-1210p0-0-10p8p0-0-8p7p0-0|
D|-----------------------------------|-----------------------------------|
(guitar 2)
e|-----------------|-----------------|-----------------|-----------------|
B|-----------------|-----------------|-----------------|-----------------|
G|-----------------|-----------------|-----------------|-----------------|
D|-2~--------------|(2)--------------|-0~--------------|-5~--------------|
A|-2~--------------|(2)--------------|-0~--------------|-5~--------------|
D|-2~--------------|(2)--------------|-0~--------------|-5~--------------|

Pre-Chorus x2 (both guitars)
e|---------------------------------|---------------------------------|
B|---------------------------------|---------------------------------|
G|---------------------------------|---------------------------------|
D|-0-------------------------------|---------------------------------|
A|-0-----3/5~------3~--------------|----------5------------------3---|
D|-0---------------------------0---|/7p5p3p0-----0---7h8p7p5p3-------|

Chorus (both guitars)                                           rpt x3
e|---------------------------------|---------------------------------|
B|---------------------------------|---------------------------------|
G|*--------------------------------|--------------------------------*|
D|*0~------7~------5~----3~--------|-0-------7-----5-----x-x---x-x--*|
A|-0~------7~------5~----3~--------|-0-------7-----5-----x-x---x-x---|
D|-0~------7~------5~----3~--------|-0-------7-----5-----x-x---x-x---|

e|---------------------------------|---------------------------------|
B|---------------------------------|---------------------------------|
G|---------------------------------|---------------------------------|
D|-0~------7~------5~----3~--------|---------------------------------|
A|-0~------7~------5~----3~--------|---------------------------------|
D|-0~------7~------5~----3~--------|--/7h8-5h7h8-5h7~----------------|
(guitar 1) *only play this part on the 2nd and 3rd Chorus
e|---------------------------------|
B|---------------------------------|
G|---------------------------------|
D|--/7h8-5h7h8-5h7~----------------|
A|---------------------------------|
D|---------------------------------|

Verse 2 (guitar 1)
e|-----------------------------------|-----------------------------------|
B|-----------------------------------|-----------------------------------|
G|----------------12~----------------|-12~-----------12b-(13)-------10/--|
D|-12---14---15-------------15~------|----------15-----------------------|
A|-----------------------------------|-----------------------------------|
D|-----------------------------------|-----------------------------------|

e|-----------------------------------|-----------------------------------|
B|-----------------------------------|-----------------------------------|
G|-15~-------15---14~----------(10)/-|-15~------15---14---12-------------|
D|-----------------------------------|------------------------15--14~----|
A|-----------------------------------|-----------------------------------|
D|-----------------------------------|-----------------------------------|
(guitar 2)
e|-----------------|-----------------|-----------------|-----------------|
B|-----------------|-----------------|-----------------|-----------------|
G|-----------------|-----------------|-----------------|-----------------|
D|-2~--------------|(2)--------------|-0~--------------|-5~------0~------|
A|-2~--------------|(2)--------------|-0~--------------|-5~------0~------|
D|-2~--------------|(2)--------------|-0~--------------|-5~------0~------|
(guitar 1)
e|-----------------------------------|-----------------------------------|
B|-----------------------------------|-----------------------------------|
G|----------------12~----------------|-12~-----------12b-(13)-------10/--|
D|-12---14---15-------------15~------|----------15-----------------------|
A|-----------------------------------|-----------------------------------|
D|-----------------------------------|-----------------------------------|

e|-----------------------------------|-----------------------------------|
B|-----------------------------------|-----------------------------------|
G|-15~-------15---14~----------(10)/-|-15~-------15---14~----------------|
D|-----------------------------------|-----------------------------------|
A|-----------------------------------|-----------------------------------|
D|-----------------------------------|-----------------------------------|
(guitar 2)
e|-----------------|-----------------|-----------------|-----------------|
B|-----------------|-----------------|-----------------|-----------------|
G|-----------------|-----------------|-----------------|-----------------|
D|-2~--------------|(2)--------------|-0~--------------|(0)--------------|
A|-2~--------------|(2)--------------|-0~--------------|(0)--------------|
D|-2~--------------|(2)--------------|-0~--------------|(0)--------------|
(guitar 1) *repeat this riff along with guitar 2
e|-----------------------------------|-----------------------------------|
B|-----------------------------------|-----------------------------------|
G|-----------------------------------|-----------------------------------|
D|-----------------------------------|-----------------------------------|
A|-1312p0-0-1210p0-0-10p8p0-0-8p7p0-0|-1312p0-0-1210p0-0-10p8p0-0-8p7p0-0|
D|-----------------------------------|-----------------------------------|
(guitar 2)
e|-----------------|-----------------|-----------------|-----------------|
B|-----------------|-----------------|-----------------|-----------------|
G|-----------------|-----------------|-----------------|-----------------|
D|-2~--------------|(2)--------------|-0~--------------|-5~------0~------|
A|-2~--------------|(2)--------------|-0~--------------|-5~------0~------|
D|-2~--------------|(2)--------------|-0~--------------|-5~------0~------|

e|-----------------|-----------------|-----------------|-----------------|
B|-----------------|-----------------|-----------------|-----------------|
G|-----------------|-----------------|-----------------|-----------------|
D|-2~--------------|(2)--------------|-0~--------------|-5~--------------|
A|-2~--------------|(2)--------------|-0~--------------|-5~--------------|
D|-2~--------------|(2)--------------|-0~--------------|-5~--------------|

Pre-Chorus x2
Chorus x1
Bridge/Solo (guitar 2)
e|-----------------|-----------------|-----------------|-----------------|
B|-----------------|-----------------|-----------------|-----------------|
G|-----------------|-----------------|-----------------|-----------------|
D|-0~--------------|-0~--------------|-3~--------------|-2-2-2-2-3-3-3-3-|
A|-0~--------------|-0~--------------|-3~--------------|-2-2-2-2-3-3-3-3-|
D|-0~--------------|-0~--------------|-3~--------------|-2-2-2-2-3-3-3-3-|

(guitar 1/solo) *starts off clean
e|-----------------|-----------------|-----------------|----------------------------------|
B|-----------------|-----------------|-----------------|----------------------------------|
G|-7-9~--------9-7-|-9-10~------10-9-|-10-12~----14-12-|-14-15-14151412-14151412-14151412-|
D|-----------------|-----------------|-----------------|----------------------------------|
A|-----------------|-----------------|-----------------|----------------------------------|
D|-----------------|-----------------|-----------------|----------------------------------|
                                            *distortion kicks in here  v
e|-----------------|--------------------|-----------------|-----------17b---|
B|-----------------|--------------------|-----------------|-----------------|
G|(12)----/19------|15p12-12~-14--------|--------/19------|-15p12-12~-------|
D|-----------------|-------------15-15~-|/17--------------|-----------------|
A|-----------------|--------------------|-----------------|-----------------|
D|-----------------|--------------------|-----------------|-----------------|

e|----------17b----|-171717171717171717171717------------------151515/-|
B|-15~-------------|-------------------------151515151515151515--------|
G|-----------------|---------------------------------------------------|
D|-----------------|---------------------------------------------------|
A|-----------------|---------------------------------------------------|
D|-----------------|---------------------------------------------------|
                                (18 18 18 18 18 18)
e|-17171717171717b17b17b17b17b17b17b17b17b17b17b17b17b17b17b17b17b17-|
B|-------------------------------------------------------------------|
G|-------------------------------------------------------------------|
D|-------------------------------------------------------------------|
A|-------------------------------------------------------------------|
D|-------------------------------------------------------------------|

e|-171717171717171717171717171717171717-15h17p15h17p15p14-|
B|--------------------------------------------------------|
G|--------------------------------------------------------|
D|--------------------------------------------------------|
A|--------------------------------------------------------|
D|--------------------------------------------------------|

e|-----------------|
B|-15~-------------|
G|-----------------|
D|-----------------|
A|-----------------|
D|-----------------| Sorry I don't have all the solo figured out yet

Chorus x2
Intro x4
End
comments
We did not receive enough feedback on this tab! Please rate:
print report bad tab
1 2 3 4 5
4 comments total. Showing first comments.
0 reply
Phycopath09 wrote on August 23 2009, 01:53 am

nice tab

0 reply
PwarDuex wrote on August 21 2011, 03:16 am

Very good tab, PLEASE finish off the solo and/or get this onto Guitar Pro :)

0 reply
BassFreak102 wrote on August 21 2011, 10:29 pm

I done this a long time ago, I'm gonna try and fix some things up here and there when i get around to it

I want to post or [tab]
guest
You may want to rate the tab now too:
select rating
Please do not post tabs as comments. Select "correction" instead!