Oops, an error
Loading. Please wait.

Kill For You Tab

version 2
version 2

Whole song

223 views 1 this week
no commentswrite comment
1 2 3 4 5
3 more votes to show rating
add to favorites
launch autoscroll
font size
0
reset
how to read this tab
guitar tuner
Autoscroll
slow
fast
+/-
esc
set tempo
stop
Help us to improve Ultimate-Guitar.com Take our survey!
×
Author
Difficulty
novice
Song: Kill For You
Band: Anarchy Club
Album: The Way And It's Power

Chorus x2
e|---------------------------------|---------------------------------|
B|---------------------------------|---------------------------------|
G|---------------------------------|---------------------------------|
D|-9---9---9-9-9-7---7-7---7-7-7-7-|-4---4---4-4-4-5---5----/7-7-7-7-|
A|-9---9---9-9-9-7---7-7---7-7-7-7-|-4---4---4-4-4-5---5----/7-7-7-7-|
E|-7---7---7-7-7-5---5-5---5-5-5-5-|-2---2---2-2-2-3---3----/5-5-5-5-|

Verse x3
e|---------------------------------|---------------------------------|
B|---------------------------------|---------------------------------|
G|---------------------------------|---------------------------------|
D|-5-5---------5-5---------5-5-----|-4~------------------------------|
A|-5-5---------5-5---------5-5-----|-4~------------------------------|
E|-3-3---------3-3---------3-3-----|-2~------------------------------|

Pre-Chorus
e|---------------------------------|---------------------------------|
B|---------------------------------|---------------------------------|
G|---------------------------------|---------------------------------|
D|-5-5---------5-5---------5-5-----|-4~--------------5~------7~------|
A|-5-5---------5-5---------5-5-----|-4~--------------5~------7~------|
E|-3-3---------3-3---------3-3-----|-2~--------------3~------5~------|

Chorus x4
Verse x3
Pre-Chorus
Bridge x7
e|---------------------------------|
B|---------------------------------|
G|---------------------------------|
D|-4~--------------5~--------------|
A|-4~--------------5~--------------|
E|-2~--------------3~--------------|

Bridge End
e|---------------------------------|
B|---------------------------------|
G|---------------------------------|
D|-4~-------------------------/7---|
A|-4~-------------------------/7---|
E|-2~-------------------------/5---|

Chorus x8
End Note
e|---------------------------------|
B|---------------------------------|
G|---------------------------------|
D|-9~------------------------------|
A|-9~------------------------------|
E|-7~------------------------------|
Suggest correction
Give kudos to tab author, rate the tab!
1 2 3 4 5
comments
print report bad tab
guest
You may want to rate the tab now too:
select rating
Wanna post a correction for this tab? Suggest correction